Аккорды для всех - сайт народных аккордов
 
Аккорды и тексты песен
Guitar Pro табулатуры
Уроки игры на гитаре
Таблица аккордов
Бесплатные программы для музыкантов
Фотографии музыкантов
Видеоклипы
Каталог ссылок
Обратная связь
На главную страницу
 
 
     
 
 

Аккорды, песни, текст, табулатура



Oasis - Do You Know What I Mean? 


Verse:
Em7 G
Step off a train, all alone at dawn,
Dsus4 Asus4
back into the hole where I was born,
Em7 G Dsus4 Asus4
Sun in the sky, never raised an eye to me(eee).

This riff is used throughout
let ring
e-12-12------------
b-------12-12------
g--------------12--
d------------------

Theres blood on the tracks, and they must be mine,
Fool on the hill, and I feel fine,
Dont look back, 'cause you know what you might see(eee).

Mini solo:

Look into the wall of my minds eye,
I think I know, but I dont know why,
Questions of the answers you might need(ddd).

Coming in a mess, going out in style,
I aint good looking, but I'm someones child,
Noone can give me the air thats mine to breathe.

Riff 1:
e-----------------------
b-----------------------
g---4b5r4---2-----2-----
d--------------4-----4--
a-----------------------
E-----------------------
together
e----------------------------
b----------------------------
g---16b17r16---14----14------
d-----------------16-----16--
a----------------------------
E----------------------------

Chorus:
Em7 Dsus4 Asus4
I met my maker, I made him cry, (Riff 1)
And on my shoulder, he asked me why, (Riff 1)
As people won't fly thru the storm, (Riff 1)
Cadd9 Dsus4 Asus4
I said listen up now, we dont even know your born

Em7 G Dsus4
All my people right here, right now,
Asus4 Em7 G Dsus4
D'You Know What I Mean? Yeah Yeah
All my people right here, right now,
D'You Know What I Mean? Yeah Yeah
All my people right here, right now,
D'You Know What I Mean? Yeah Yeah
Yeah, Yeah, Yeah, Yeah.

I don't really care for what you believe,
So open up your fist and you're well recieved,
The thoughts and the words of every man you'll meet.

Get up off the floor of the leaving line,
No-ones ever gonna ever ask you twice,
Get all the fuss and bring it all home to me(eee).

I met my maker, I made him cry,
And on my shoulder, he asked me why,
As people won't fly thru the storm,
I said listen up now, we dont even know your born

All my people right here, right now,
D'You Know What I Mean? Yeah Yeah
All my people right here, right now,
D'You Know What I Mean? Yeah Yeah
All my people right here, right now,
D'You Know What I Mean? Yeah Yeah

Bridge: Cadd9 Dsus4 x3
A

Guitar Solo: Chords and rhythm are the same as the chorus.

e-------------------------------------
b--17b18r17------15-------------------
g------------16------16p14------------
d---------------------------16--16----
a-------------------------------------
E-------------------------------------

e--------------------------------------------------
b--------------------------------------------------
g----------14---14----------------------14---------
d---14h16------------16--14--14h16----------16-----
a--------------------------------------------------
E--------------------------------------------------

e-------------------------------------
b--17b18r17------15-------------------
g------------16------16p14------------
d---------------------------16--16----
a-------------------------------------
E-------------------------------------

(at this part use some bends and the wah and basically adlib)
e------------------------------------------
b--14----14-----14-------------------------
g--14----14-----14------------------------- or something kinda like
d-----16----16-----16---16b17-------------- this
a------------------------------------------
E------------------------------------------

e-------------------------------------
b--17b18r17------15-------------------
g------------16------16p14------------
d---------------------------16--16----
a-------------------------------------
E-------------------------------------

e-----------------------------------------------------------
b-----------------------------------------------------------
g--------------------14--16---14--16b17-----14-----14-------
d---------14---16------------------------------16-----------
A-----16----------------------------------------------------
E-----------------------------------------------------------

e-------------------------------------
b--17b18r17------15-------------------
g------------16------16p14------------
d---------------------------16--16----
a-------------------------------------
E-------------------------------------

e------------------------------------------
b--14----14-----14-------------------------
g--14----14-----14------------------------- or something kinda like
d-----16----16-----16---16b17-------------- this just improvise
a------------------------------------------
E------------------------------------------

All my people right here, right now
D'You know What I Mean? Yeah, Yeah
All my people right here, right now
D'You know What I Mean? Yeah, Yeah
All my people right here, right now
D'You know What I Mean? Yeah, Yeah

 

 

 
 
 
     
 
 
 

инженеров.netДомашняя страницаНезависимый морской сайтПортал для гитаристовПриколы, юмор, анекдоты

 
обновлен 24.12.2011
в сети с 06.03.2004
 
 
Неофициальный морской сайт Домашняя страница Яндекс цитирования Internet Map Rambler's Top100
Учет посещений на народе

все тексты песен являются собственностью их автора. песени взяты из открытых источников. на сайте размещены с целью ознакомления. при использовании материалов сайта ссылка на сайт обязательна.

по всем вопросам стучитесь в асю или пишите на электропочту

идея, дизайн, редактирование Леха ZaG Загрядский

zagstudio