Аккорды для всех - сайт народных аккордов
 
Аккорды и тексты песен
Guitar Pro табулатуры
Уроки игры на гитаре
Таблица аккордов
Бесплатные программы для музыкантов
Фотографии музыкантов
Видеоклипы
Каталог ссылок
Обратная связь
На главную страницу
 
 
     
 
 

Аккорды, песни, текст, табулатура



Oasis - Do You Know What I Mean?


INTRO 0:41/2 , 0:47 , 0:52, 0:53/4 , 0:58
G|---------------------------------------------------------
D|---------------------------------------------2/4--4--4-2-
A|---------------------------------------------------------
E|--------2--------0--2------0----2--------0-2-------------

----------------------------------|
----------------------------------|
--5----5--3--/7--7----/14---------|
-----------------------------14--|

VERSE (main theme)
|-------------------------------------------------------------|
|-------------------------------------------------------------|
|----------------------------------------------2-2-2-2--2-2-2-|
|-0--2--2--2-2-2-2-(/)5--5--5-5-(2)--0--0--0-2----------------|

Prechorus ('I met my maker i made him cry')
|--------------------------------------------------------|
|--------------------------------------------------------|
|-----------------------------------------2-2-0-2--2-2-2-|
|-0--2--2--2-2-2-0-2--2--2-2-0--0--0--0-0----------------|

lead to the chorus!
|-----------------------------------------------------------|
|-----------------------------------------------------------|
|-5--5--5--5-5-5/7--7--7--7-7-7/9--9--9--9-9-9-9-9-9--9-9-9-|
|-----------------------------------------------------------|

Chorus (same as the main theme)
|-----------------------------------------------------------|
|-----------------------------------------------------------|
|------------------------------------------2-2-(0)-2--2-2-2-|
|-0--2--2--2-2-2/3--5--5--5-5-2--0--0--0-2------------------|

VERSE (with no singin yet, just "yeah yeah")
prechorus

lead to the chorus
NOTE: There may be too less of those '14s' just use your instic!
|--------------------------------------------------------------
|--------------------------------------------------------------
|-5--5--5--5-5-5/7--7--7--7-7-7/14--14--14--14-14-14-14-14-14--
|--------------------------------------------------------------

---------------------------------------------|
---------------------------------------------|
--14-14-14-12-14-14--14--14-14-12--7/--14--|
---------------------------------------------|

CHORUS (also a lead to guitar solo)

|-------------------------|
|-------------------------|
|-------------------------|
|--10----10----/12--12----| x3

|--------------------------------------------------------
|--------------------------------------------------------
|--14--14--14--14--14--14--14--14--14--12h14--14--14--14-
|--------------------------------------------------------

----------------------|
----------------------|
--14-14-12--7/--14--|
----------------------|

same notes which are in the chorus!
|------------------------------------------------------------------|
|------------------------------------------------------------------|
|--------------------------------------------14-14-14-14--14-14-14-|
|-0--2--2--2-2-2-2-(/)5--5--5-5-2--0--0--0-0-----------------------|

CHORUS (B comes an octave higher but it doesn't really matter)

the END
|---------------------------------------------------------------------
|---------------------------------------------------------------------
|---------------------------------------------------------------------
|-10---10-10-10-10---10-12--12--12--10---10-10-10-10---10-12--12--12--

-------------------------------------------------|
-------------------------------------------------|
-------------------------------------------------|
--10---10-10-10-10---10-12--12--12--2~~~~~~------|

 

 

 
 
 
     
 
 
 

инженеров.netДомашняя страницаНезависимый морской сайтПортал для гитаристовПриколы, юмор, анекдоты

 
обновлен 24.12.2011
в сети с 06.03.2004
 
 
Неофициальный морской сайт Домашняя страница Яндекс цитирования Internet Map Rambler's Top100
Учет посещений на народе

все тексты песен являются собственностью их автора. песени взяты из открытых источников. на сайте размещены с целью ознакомления. при использовании материалов сайта ссылка на сайт обязательна.

по всем вопросам стучитесь в асю или пишите на электропочту

идея, дизайн, редактирование Леха ZaG Загрядский

zagstudio