Аккорды для всех - сайт народных аккордов
 
Аккорды и тексты песен
Guitar Pro табулатуры
Уроки игры на гитаре
Таблица аккордов
Бесплатные программы для музыкантов
Фотографии музыкантов
Видеоклипы
Каталог ссылок
Обратная связь
На главную страницу
 
 
     
 
 

Аккорды, песни, текст, табулатура



Oasis - Dont Look Back In Anger


C G Am E7 F G
Slip inside the eye of your mind don't you know you might find
C Am G
A better place to play

C G Am E7 F G
You say that you never been but all the things that you've seen
C Am G
Slowly fade away
F Fm C
So I start a revolution from my bed
F Fm C
Cos you said the brains I have went to my head
F Fm C
Step outside the summertime's in bloom
G G#/E7
Stand up beside the fire place take that look from off your face
Am G F G
Cos you ain't never gonna burn my heart out______________
C G Am E7 F G C Am G
So Sally can wait she knows it's too late as we're walking on by
C G Am E7 F G C
Her soul slides away but don't look back in anger I heard you say
SOLO:
E|----8----11------------------------------------------------|
A|---------------8----10-------------------------------------|
D|--------------------------8----10--------------------------|
G|-------------------------------------8----10---------------|
B|-------------------------------------------------811------|
E|---------------------------------------------------------8-|

E|---------------------------------------------------------|
A|------------------------------------------------10-----8-|
D|-------------------------------------10----8-------------|
G|--------------------------10----8------------------------|
B|---------------11----8-----------------------------------|
E|----11----8----------------------------------------------|

Same chords:
Take me to the place where you go where nobody knows
if it's nigth or day
Please don't put your life in the hands of a rock 'n roll band
Who'll throw it out away
Gonna start a revolutio from my bed
Cos you said the brains I have went to my head
Step outside the summertime's in bloom
Stand up beside the fire place take that look from off your face
Cos you ain't never gonna burn my heart out______________
So Sally can wait she knows it's too late as we're walking on by
Her soul slides away but don't look back in anger I heard you say
SOLO:
E|-------------------------------------------------------|
A|-------------------------------------------------------|
D|-------------------------------------------------------|
G|----10--10--10--10--9--910--9-------------------10--9-|
B|--------------------------------9--11--9--11--9--------|
E|-------------------------------------------------------|

E|----------------------------------------------11--9--9--11--------|
A|---------------------------------------10--9----------------9--10-|
D|--------------------------------10--9-----------------------------|
G|----10--10--10--10--9--910--9------------------------------------|
B|------------------------------------------------------------------|
E|------------------------------------------------------------------|

E|-----------------------------------------------------------------|
A|-----------------------------------------------------------------|
D|----9--10--------------------------------------------------------|
G|-----------9--10-----------------------------10--9--9--10--9--10-|
B|-----------------9--10----------------10--9----------------------|
E|------------------------9--10--10--9-----------------------------|

E|--------------------------------------------------------------------|
A|--------------------------------------------------------------------|
D|--------------------------------------------------------------------|
G|----9--9--10--9------------------------------------------10--10--10-|
B|---------------9--11--9--11--9--11--9--11--9--11--9--11-------------|
E|--------------------------------------------------------------------|

E|------------------------------------------------------------------|
A|------------------------------------------------------------------|
D|------------------10--9--910-------------------------------------|
G|----10--9--10--9---------------9--10--9--10--9--10--9--10--9---10-|
B|------------------------------------------------------------------|
E|------------------------------------------------------------------|

E|----------------------------------|
A|----------------------------------|
D|----------------------------------|
G|----9--10--10--10--10--10--10--10-|
B|----------------------------------|
E|----------------------------------|
So Sally can wait she knows it's too late as we're walking on by
Her soul slides away......
F
But don't look back in anger
Fm
Don't look back in anger
C G Am F Fm
I heard you say
C
At least not today

 

 

 
 
 
     
 
 
 

инженеров.netДомашняя страницаНезависимый морской сайтПортал для гитаристовПриколы, юмор, анекдоты

 
обновлен 24.12.2011
в сети с 06.03.2004
 
 
Неофициальный морской сайт Домашняя страница Яндекс цитирования Internet Map Rambler's Top100
Учет посещений на народе

все тексты песен являются собственностью их автора. песени взяты из открытых источников. на сайте размещены с целью ознакомления. при использовании материалов сайта ссылка на сайт обязательна.

по всем вопросам стучитесь в асю или пишите на электропочту

идея, дизайн, редактирование Леха ZaG Загрядский

zagstudio