Аккорды для всех - сайт народных аккордов
 
Аккорды и тексты песен
Guitar Pro табулатуры
Уроки игры на гитаре
Таблица аккордов
Бесплатные программы для музыкантов
Фотографии музыкантов
Видеоклипы
Каталог ссылок
Обратная связь
На главную страницу
 
 
     
 
 

Аккорды, песни, текст, табулатура



Oasis - Dont Go Away


Intro: Am G Fmaj7
E-----------------------------------------------------
B-----------------------------------------------------
G------------5---7----------(9)-----7---5---7---5-----
D----5---7-----------------------------------------7--
A-----------------------------------------------------
E-----------------------------------------------------

Dm G (x2)
---------------------------------|-----------------------|
---------------------------------|-----------------------|
---------------------------------|---5-------------------|
------------------------------7--|--------7--------------|
-----------X--X--5--(7)----------|-----------------------|
-------------------------5-------|-----------------------|
|--play this part only--|
|----on the 2nd time----|

Verse 1:
Am G
A cold and frosty morning there's not a lot to say
Fmaj7 Dm F
About the things caught in my mind
Am G
As the day was dawning my plain flew away
Fmaj7 Dm F
With all the things caught in my mind

Bridge:
Fill#1(this is played through all the song)
E---------------3-----------------3----
B----------1--------1--------1----------
G----4------------------4--------------
D--------------------------------------
A--------------------------------------
E--------------------------------------

Dm(Fill#1) F
And I don't wanna be there when you're coming down
Dm(Fill#1) F G
And I don't wanna be there when you hit the ground


Chorus:
C G
So don't go away, say what you say
Am G
But say that you'll stay, forever and a day
F G
In the time of my life, cause I need more time
Am G F
Yes I need more time just to make things right

Little Solo:
E---------------------------
B---------------------------
G----7(9)------(9)(7)--5----
D------------------------7--
A---------------------------
E---------------------------

Verse 2:
Am G
Damn my situation and the games I have to play
Fmaj7 Dm F
With all the things caught in my mind
Am G
Damn my education I can't find the words to say
Fmaj7 Dm F
About the things caught in my mind

Bridge:
Dm(Fill#1) F
And I don't wanna be there when you're coming down
Dm(Fill#1) F G
And I don't wanna be there when you hit the ground

Chorus:

C G
So don't go away, say what you say
? Am G
But say that you'll stay, forever and a day
F G
In the time of my life cause I need more time
Am G F
Yes I need more time just to make things right

Fm
Me and you what's going on
Solo 1
C - G - Am
E------------------------------------------------------------
B------------------------------------------------------------
G---------5-----7----5----7-(9)(7)---5-------5----5~---------
D--5--7--------------------------------7---------------7-----
A------------------------------------------------------------
E------------------------------------------------------------

F Fm
All we seem to know is how to show the feelings that are wrong

Solo 2

C - G -
E-----------------------------------------------
B----------------------------------------------
G---------5-----7----5--7(9)(7)----5-------5----
D--5--7---------------------------------7-------
A-----------------------------------------------
E-----------------------------------------------

Am G - F
E--------------8-10--8---------------8---10--
B-----8----10------------------8---10--------
G-7(9)---------------------------------------
D--------------------------------------------
A--------------------------------------------
E--------------------------------------------
Chorus: (x2)
C G
So don't go away, say what you say
? Am G
But say that you'll stay, forever and a day
F G
In the time of my life cause I need more time
Am G F
Yes I need more time just to make things right

Am G F
Yes I need more time just to make things right
Am G F
Yes I need more time just to make things right
Am G F Fm
Yes I need more time just to make things right
C
So, don't go away


On this last part("yes I need more time...")
one of the guitars keeps playing something like this:

E-------8-------8--
B--8-10----8-10----

 

 

 
 
 
     
 
 
 

инженеров.netДомашняя страницаНезависимый морской сайтПортал для гитаристовПриколы, юмор, анекдоты

 
обновлен 24.12.2011
в сети с 06.03.2004
 
 
Неофициальный морской сайт Домашняя страница Яндекс цитирования Internet Map Rambler's Top100
Учет посещений на народе

все тексты песен являются собственностью их автора. песени взяты из открытых источников. на сайте размещены с целью ознакомления. при использовании материалов сайта ссылка на сайт обязательна.

по всем вопросам стучитесь в асю или пишите на электропочту

идея, дизайн, редактирование Леха ZaG Загрядский

zagstudio