Аккорды для всех - сайт народных аккордов
 
Аккорды и тексты песен
Guitar Pro табулатуры
Уроки игры на гитаре
Таблица аккордов
Бесплатные программы для музыкантов
Фотографии музыкантов
Видеоклипы
Каталог ссылок
Обратная связь
На главную страницу
 
 
     
 
 

Аккорды, песни, текст, табулатура



Oasis - Acquiesce 


e-----------------------------------------------
B--------------------------------------7^^^-----
G--------------------------------------7^^^----- (repeat once again)
D--x-x-5-7-7-5-7/------x-x-5-7-7-5-7-5----------
A--x-x-5-7-7-5-7/------x-x-5-7-7-5-7-5----------
E--x-x-----------------x-x----------------------

Verse 1
-------
[Here is the tab for how the chords during the verses are supposed to be
played. During all verses below, play chords like this even though they
won't be listed below.]

G5 A5 G5 A5 D/F# G5 A5 G5 A5 D/F# G5
e--------------------------2--2--------------------------------2--2-----
B--------------------------3--3--------------------------------3--3-----
G--------------------------2--2--------------------------------2--2-----
D--5--7--7--5--7--7--7-----0--0---5----5--7--7--5--7--7--7-----0--0--5--
A--5--7--7--5--7--7--7-----0--0---5----5--7--7--5--7--7--7-----0--0--5--
E--3--5--5--3--5--5--5--0--2--2---3----3--5--5--3--5--5--5--0--2--2--3--

A5 (along with above riff) D/F# G5
I don't know what it is that makes me feel alive
I don't know what awakes the things that sleep inside
I only wanna see the light that shines behind your eyes

I hope that I can say the things I wish I'd said
To sing my soul to slepp and take me back to bed
A5 (w/ riff) D/F# G5 A5 G5 F#5 F5 E
You want to be alone but when we could be alive instead

Chorus
------
F C G
Because we need each other
F C G
We believe in one another
F C G
And I know we're gonna uncover
F C G
What's sleepin' in our soul
Becuase we need each other
We believe in one another
(And) I know we're gonna uncover
What's sleepin' in our soul
A5 G5 F#5 F5 E
What's sleepin' in our soul

Verse 3
-------
There are many things that I would like to know
And there are many places that I wish to go
But everything's depending on the way the wind may blow

I don't know what it is that makes me feel alive
I don't know how to wake the things that sleep inside
I only wanna see the light that shines behind your eyes

Chorus
------
Because we need each other
We believe in one another
And I know we're gonna uncover
What's sleepin' in our soul
Because we need each other
We believe in one another
And I know we're gonna uncover
What's sleepin' in our soul
What's sleepin' in our soul

What's sleepin' in our soul
What's sleepin' in our soul
'Cause we believe
'Cause we believe
Yeah, we believe
'Cause we believe
'Cause we believe
'Cause we believe
Because we need
Because we need

Song ends with the chord progression:

F C/E Eb C G

 

 

 
 
 
     
 
 
 

инженеров.netДомашняя страницаНезависимый морской сайтПортал для гитаристовПриколы, юмор, анекдоты

 
обновлен 24.12.2011
в сети с 06.03.2004
 
 
Неофициальный морской сайт Домашняя страница Яндекс цитирования Internet Map Rambler's Top100
Учет посещений на народе

все тексты песен являются собственностью их автора. песени взяты из открытых источников. на сайте размещены с целью ознакомления. при использовании материалов сайта ссылка на сайт обязательна.

по всем вопросам стучитесь в асю или пишите на электропочту

идея, дизайн, редактирование Леха ZaG Загрядский

zagstudio