Аккорды для всех - сайт народных аккордов
 
Аккорды и тексты песен
Guitar Pro табулатуры
Уроки игры на гитаре
Таблица аккордов
Бесплатные программы для музыкантов
Фотографии музыкантов
Видеоклипы
Каталог ссылок
Обратная связь
На главную страницу
 
 
     
 
 

Аккорды, песни, текст, табулатура



Oasis - Cast No Shadow 


Intro
G|-12-----------------------------------------------------|
D|--------------------------------------------------------|
A|-------12----14--12--------------------12--10----------|
E|------------------------3----1-3-1-3------------12--10-|

G|---------------------------------------------|
D|-------------------------------7--5----------|
A|-------------------------------------7--5---|
E|5--5----5--5-5----3/5--5--5------------------|

G|----------------------------------|
D|----------------------------------|
A|----------------------------------|
E|3--3----3--3-3----1/3-3----3--3-3-|

Verse
Here's a thought...
G|----------------------------------------|
D|-----------------------------7--5-------|
A|-----------------------------------7---|
E|-5--5----5--5-5----5--5-----------------|

G|----------------------------------|
D|----------------------------------|
A|----------------------------------|
E|3--3----3--3-3----1/3-3----3--3-3-|

G|--------------------------------------|
D|---------------------------5--7/12---|
A|------------------------7-------------|
E|5--5----5--5-5----5--5----------------|

G|-------------------------------------------|
D|-------------------------------------------|
A|-------------------------------------------|
E|3--3----3--3-3----1/3-3--3----3--3-3--3--3-|

Pre - Chorus
Bound with all the weight...
G|------9-----------------------------------------|----|
D|------------------------------------------------|----|
A|-7---------5-5-5--5----3----3-------------------|----|
E|---------------------------------3--3--3-(1)-3--| x3-|

As he faced the sun...
G|--------------------------------------|
D|--------------------7/12----12----10-|
A|------5----3--------------------------|
E|-0------------------------------------|

Chorus
As they took...
G|---------------------------------------------|
D|-------------------------------------7/12---|
A|---------------------------------------------|
E|-3--3----3--3-3----3/5-5--5----5--5----------|

G|-------------------------------------------|
D|-------------------------------------------|
A|----------------------7--5--7-----5--5h7-5-|
E|8--8----8--8-8--8--0-----------0-----------|

G|----------------------------------------|
D|----------------------------------------|
A|----------------------------------------|
E|3--3----3--3-3----3/5-5--5----5--5-5--5-|

G|------------------------------------------|
D|----------------------------------7/12---|
A|----------------------7--5--7-------------|
E|8--8----8--8-8--8--0-----------0----------|

G|----------------------------------------|
D|----------------------------------------|
A|----------------------------------------|
E|3--3----3--3-3----3/5-5--5----5--5-5--5-|

G|------------------------------------------|
D|----------------------------------7/12---|
A|----------------------7--5--7-------------|
E|8--8----8--8-8--8--0-----------0----------|

Musical interlude
G|------------------------------------------------------|
D|----------------------------------7--5----------------|
A|7----5----3--------3---3---3---3----------7--5--5h7p5-|
E|------------------------------------------------------|

G|------------------------------------|
D|--------------------------5h7/12---|
A|------------------------------------|
E|5--5----5--5-5----5--5--------------|

G|------------------------------------------------------------|
D|------------------------------------------------------------|
A|------------------------------------------------------------|
E|3--3----3--3-3----1/3-3--3----3--3-3----5--5----5--5-5----5-|

G|------------------------------|
D|---(10)-12----12-(14)-12--10-|
A|12----------------------------|
E|------------------------------|

G|-------------------------------------|
D|-------------------------------------|
A|-------------------------------------|
E|3--3----3--3-3----1/3-3--3----3--3-3-|

Verse

Pre - Chorus
Bound with all the weight...
G|------9-----------------------------------------|----|
D|------------------------------------------------|----|
A|-7---------5-5-5--5----3----3-------------------|----|
E|---------------------------------3--3--3-(1)-3--| x3-|

As he faced the sun...
G|------------------------------------------------|
D|------------------------------------------------|
A|------5----3--------8/12--10--10h12--10---------|
E|-0--------------------------------------12--10-|

Chorus/End
G|-------------------------------------------|
D|------------------------------------7/12--|
A|-------------------------------------------|
E|-3--3----3--3-3--3--3/5-5--5---5--5--------|

G|---------------------------------------------|
D|---------------------------------------------|
A|-----------------------7--5--7-----5h7--5----|
E|8--8----8--8-8--8---0-----------0----------7-|

G|--------------------------------------------|
D|--------------------------------------------|
A|--------------------------------------------|
E|3--3----3--3-3--3--3/5-5--5---5--5-5--5---5-|

G|---------------------------------------------------|
D|------------------------------------------------12-|
A|------------------------7--5--7-----12h10-12/15----|
E|8--8----8--8-8--8----0-----------0-----------------|

G|--------------------------------------------|
D|--------------------------------------------|
A|--------------------------------------------|
E|3--3----3--3-3--3--3/5-5--5---5--5-5--5---5-|

G|-----------------------------------------------|
D|-----------------------------------------------|
A|-----------------------7--5--7-----7----7-/-10-|
E|8--8----8--8-8--8---0-----------0----10--------|

G|--------------------------------------------|
D|--------------------------------------------|
A|--------------------------------------------|
E|3--3----3--3-3--3--3/5-5--5---5--5-5--5---5-|

G|------------------------------------------------|
D|------------------------------------------------|
A|------------------------7--5--7-----75-7/10-12-|
E|8--8----8--8-8--8----0-----------0--------------|

(this is wrong)
G|-------------------------------------------------------------------------|
D|-----9---------7-----------------------------------3-5----5-7------5-----|
A|7---------5---------3----3--3-3--3----3-3--3--3--5------7------5-7---7---|
E|-----------------------------------------------------------------------0-|

G|--------------------------------------------------------------------------|
D|-----9---------7----------------------------------5-7----7-9/12--10-12-10-|
A|7---------5---------3----3--3-3--3----3-3--3/5--7------9------------------|
E|--------------------------------------------------------------------------|

G|---------------------------------------------------------------------------|
D|-----9---------7----------------------------------5-7----5h7/--12----12-12-|
A|7---------5---------3----3--3-3--3----3-3--3/5--7------7-------------------|
E|---------------------------------------------------------------------------|

G|------------------------------------------------------|
D|-----9---------7--------------------------------------|
A|7---------5---------3----3--3-3--3-keep playing--3/15-|
E|------------------------------------------------------|

 

 

 
 
 
     
 
 
 

инженеров.netДомашняя страницаНезависимый морской сайтПортал для гитаристовПриколы, юмор, анекдоты

 
обновлен 24.12.2011
в сети с 06.03.2004
 
 
Неофициальный морской сайт Домашняя страница Яндекс цитирования Internet Map Rambler's Top100
Учет посещений на народе

все тексты песен являются собственностью их автора. песени взяты из открытых источников. на сайте размещены с целью ознакомления. при использовании материалов сайта ссылка на сайт обязательна.

по всем вопросам стучитесь в асю или пишите на электропочту

идея, дизайн, редактирование Леха ZaG Загрядский

zagstudio