Аккорды для всех - сайт народных аккордов
 
Аккорды и тексты песен
Guitar Pro табулатуры
Уроки игры на гитаре
Таблица аккордов
Бесплатные программы для музыкантов
Фотографии музыкантов
Видеоклипы
Каталог ссылок
Обратная связь
На главную страницу
 
 
     
 
 

Аккорды, песни, текст, табулатура



Oasis - Slide Away


Intro:

E-------------3-0-------3----------0--3-0-----3-------0-|
B----------------1-0------0---0---1-------1-0--1-----1--|
G-5h7b------0----------0----0----0--------------0---0---|
D---------2---------------------3------------------3----|
A-------0-----------------------------------------------|
E--------------------3----------------------------------|

Am7 G Fsus9 Am7 G Fsus9
E-------------------------------------------|
B-------------------------------------------|
G-7^9b--7b9-7-5-----------5--5--------------|
D--------------7-------5h7-----7-------7----|
A-------------------5h7------------6^5---0--|
E-------------------------------------------|


Verse 1: (0:22)

Am7 G Fsus9
Slide away, and give it all you've got
Am7 G Fsus9
My today, fell in from the top
Am7 G Fsus9
I dream of you, and all the things you say
Am7 G Fsus9
I wonder where you are now


Verse 2: (0:43) [ Same as Verse 1 ]

Hold me down - all the world's asleep
I need you now - you've knocked me off my feet
I dream of you - we talk of growing old
But you said please don't


Bridge: (1:03)

G Fsus9 G Fsus9
Slide in, baby, together we'll fly
G Fsus9 G G
I've tried praying but I Don't know what you're sayin to me


Chorus: (1:15)

C
Now that you're mine,
G
we'll find a way
Fsus9
of chasing the sun
Am7
Let me be the one
G
Who shines with you
Dsus4 Fsus9
In the morning when you don't know what to do
C
Two of a kind
G
We'll find a way
Fsus9
To do what we've done
Am7 G
Let me be the one that shines with you
Fsus9 Dsus4 Fsus9 Dsus4
And we can slide away slide away
G E
Away...


Solo: (2:13)

Am7 G Fsus9 Am7 G Fsus9 Am7 G Fsus9
E--------5----------------------8-8h10p8-----------------------------------|
B----------5----------------8h10--------10-8-8h10--------------------------|
G-7^9b-7-----7-5-5-5h7-5-------------------------7b9-9r7-5-5-5h7-5---------|
D------------------------5h7--------------------------------------5h7---7--|
A--------------------------------------------------------------------6b7-0-|
E--------------------------------------------------------------------------|

G Fsus9 G
E------------------------------------------------------------------|
B-15^17b-17-15-13---------------13^15^17--15^17b-15b17-17-15-13----|
G-----------------14------12h14---------------------------------14-|
D--------------------14h14-----------------------------------------|
A------------------------------------------------------------------|
E------------------------------------------------------------------|

Fsus9
E---------------------------|
B---------------------------|
G--------12-----------------|
D-12h14---14-12-10----------|
A------------------12-10h12-|
E---------------------------|


Slide away, and give it all you've got
My today, fell in from the top
I dream of you, and all the things you say
I wonder where you are now


Slide in, baby, together we'll fly
I've tried praying but I Don't know what you're sayin to me


Now that you're mine,
we'll find a way
of chasing the sun
Let me be the one
Who shines with you
In the morning when you don't know what to do
Two of a kind
We'll find a way
To do what we've done
Let me be the one that shines with you
And we can slide away... slide away
Slide away... slide away
Slide away... slide away


Fsus9
Slide away (And I wanna try now)
Dsus4
Slide away (Gonna make you mine now)

(x3)

Fsus9 Dsus4
B------------------------------------|
G--7b9--b9r7--5-------------5--7--5--|
D----------------7------5h7----------| [ Lead Guitar keep playing this ]
A-------------------5h7--------------|
(ooooooooooo....oo....ooooooo)

Fsus9
I don't know, I don't care
Dsus4
All I know is you take me there s

Fsus9
I don't know, I don't care
Dsus4
All I know is you take me there (Slide Away)

[x5]

Fsus9
Take me there, take me there
Dsus4
Take me there, take me there (Slide Away)
Fsus9
Take me there, take me there
Dsus4
Take me there, All I know is you take me there
Fsus9
Take me there, take me there
Dsus4
Take me there, take me there
Fsus9 D7sus4
Take me there, take me there

Fsus9 Dsus4 Fsus9 Dsus4
E-----------------------------------------------|
B------13-----13-----13-----13-----13-----13----|
G-12h14--12h14--12h14--12h14--12h14--12h14--12--|
D-----------------------------------------------|
slide Away Slide Away Slide Away Slide Away....


[ Music Fades ]

 

 

 
 
 
     
 
 
 

инженеров.netДомашняя страницаНезависимый морской сайтПортал для гитаристовПриколы, юмор, анекдоты

 
обновлен 24.12.2011
в сети с 06.03.2004
 
 
Неофициальный морской сайт Домашняя страница Яндекс цитирования Internet Map Rambler's Top100
Учет посещений на народе

все тексты песен являются собственностью их автора. песени взяты из открытых источников. на сайте размещены с целью ознакомления. при использовании материалов сайта ссылка на сайт обязательна.

по всем вопросам стучитесь в асю или пишите на электропочту

идея, дизайн, редактирование Леха ZaG Загрядский

zagstudio