Аккорды для всех - сайт народных аккордов
 
Аккорды и тексты песен
Guitar Pro табулатуры
Уроки игры на гитаре
Таблица аккордов
Бесплатные программы для музыкантов
Фотографии музыкантов
Видеоклипы
Каталог ссылок
Обратная связь
На главную страницу
 
 
     
 
 

Аккорды, песни, текст, табулатура



Oasis - Sad Song


NOTE: tune the guitars 1/2 step down


Intro:


Am C Am C Am C Am Am
Eb---0-0-------------0-------------0--------0---0---0---0----------3--3-|
Bb----1-1------1-0-1--1------1-0-1--1------1---1---1---1---1-0-1--1-----|
Gb----------------------------------------------------------------------|
Db-------------------------------------------0--------------------------|
Ab-------3-3-0---------3-3-0---------3-3-0-------3---2---0--------------|
Eb----------------------------------------------------------------------|


Verse 1: (0:19)

Am Fsus4
Sing a sad song in a lonely place,
Dsus4 E G
And try to put a word in for me
Am Fsus4
It's been so long since I found a space,
Dsus4 E G
You'd better put in two or three
Am Fsus4
We as people are just walking round,
Dsus4 E G
Our heads are firmly fixed in the ground
Am Fsus4
What we don't see, well it can't be real,
Dsus4 E G
What we don't touch we cannot feel


Chorus: (0:53)

C Em/Badd6
While we're livin' in this town
Am Fsus4
The sun is coming up and it's going down,
C G D Dsus4 D Dsus2 D
But it's all just the same at the end of the day
C Em/Badd6
And we cheat and we lie,
Am Fsus4
Nobody says it's wrong so we don't ask why,
C G D Dsus4 D Dsus2 D
'Cos it's all just the same at the end of the day


Fsus4 C
We're throwing it all away?
Fsus4 C
We're throwing it all away,
Fsus4 C
We're throwing it all away
E E7
at the end of the day...


Am C Am C Am C Am Am
Eb---0-0-------------0-----------------------0---0---0---0----------3--3-|
Bb----1-1------1-0-1--1------1-0-1-1-3------1---1---1---1---1-0-1--1-----|
Gb-----------------------------------------------------------------------|
Db--------------------------------------------0--------------------------|
Ab-------3-3-0---------3-3-0----------3-3-0-------3---2---0--------------|
Eb-----------------------------------------------------------------------|


Verse 2: (2:00)

Am Fsus4
If you're needing something I can give,
Dsus4 E G
You know I help you if I can
Am Fsus4
If you're honest and you say that you did,
Dsus4 E G
You know that I would give you my hand
Am Fsus4
Or a sad song in a lonely place,
Dsus4 E G
I'll try and put a word in for you
Am Fsus4
Need a shoulder? Well if that's the case,
Dsus4 E G
You know there's nothing I wouldn't do


While we're livin' in this town
The sun is coming up and it's going down
But it's all just the same at the end of the day
And we cheat and we lie
Nobody says it's wrong so we don't ask why,
'Cos it's all just the same at the end of the day

Don't throw it all away
Don't throw it all away
Don't throw it all away
Don't throw it all away...


Solo: (3:20)

Fsus4 C Fsus4 C
Eb-------------------------------------------|
Bb-----------------------------------8-------|
Gb-------5-7h5-7^9^7-7h5------5-7-7^9--9-7-5-|
Db----5h7------------------5h7---------------|
Ab-5h7------------------5h7------------------|
Eb-------------------------------------------|

Fsus4 C Fsus4 C
Eb---------------------------------------|
Bb-----------------------------------8b8-|
Gb-------5-7h5-7^9^7-7h5------5-7-7^9----|
Db----5h7------------------5h7-----------|
Ab-5h7------------------5h7--------------|
Eb---------------------------------------|


Fsus4 C
Eb-7------7------7------7----|
Bb---8------8------8------8--|
Gb------5------5------5------|
Db---------------------------| (x3)
Ab---------------------------|
Eb---------------------------|
Throwing it all away

E
at the end of the day...



Outro: (3:51)

Am C Am C Am C Am Am
Eb---0-0-------------0-----------------------0---0---0---0-------0--3--3-|
Bb----1-1------1-0-1--1------1-0-1-1-3------1---1---1---1---1-0-1--1-----|
Gb-----------------------------------------------------------------------|
Db--------------------------------------------0--------------------------|
Ab-------3-3-0---------3-3-0----------3-3-0-------3---2---0--------------|
Eb-----------------------------------------------------------------------|

[ Ends with Am7 ]

 

 

 
 
 
     
 
 
 

инженеров.netДомашняя страницаНезависимый морской сайтПортал для гитаристовПриколы, юмор, анекдоты

 
обновлен 24.12.2011
в сети с 06.03.2004
 
 
Неофициальный морской сайт Домашняя страница Яндекс цитирования Internet Map Rambler's Top100
Учет посещений на народе

все тексты песен являются собственностью их автора. песени взяты из открытых источников. на сайте размещены с целью ознакомления. при использовании материалов сайта ссылка на сайт обязательна.

по всем вопросам стучитесь в асю или пишите на электропочту

идея, дизайн, редактирование Леха ZaG Загрядский

zagstudio