Аккорды для всех - сайт народных аккордов
 
Аккорды и тексты песен
Guitar Pro табулатуры
Уроки игры на гитаре
Таблица аккордов
Бесплатные программы для музыкантов
Фотографии музыкантов
Видеоклипы
Каталог ссылок
Обратная связь
На главную страницу
 
 
     
 
 

Аккорды, песни, текст, табулатура



Muse - Hate This & Ill Love You


Intro:

E|----------------------|--------------------|-----------------|
B|------------2---------|------------3-------|---------3-------|
G|--------2-------2-----|--------0------0----|------2-----2----|
D|----2---------------2-|----0-------------0-|---0-----------0-|
A|0---------------------|--------------------|-----------------|
E|----------------------|3-------------------|2----------------|
A G D/F#

E|-----------------|--------------------|----------------------|
B|---------3-------|------------2-------|------------3---------|
G|------2-----2----|--------2------2----|--------0-------0-----|
D|---0-----------0-|----2-------------2-|----0---------------0-|
A|-----------------|0-------------------|----------------------|
E|2----------------|--------------------|3---------------------|
A G

E|------------3---------|------------3---------|
B|--------2-------2-----|--------2-------2-----|
G|----3---------------3-|----3---------------3-|
D|0---------------------|0---------------------|
A|----------------------|----------------------|
E|----------------------|----------------------|

1st Verse:

E|-----------------|--------------------|----------------------|
B|---------2-------|----------3---------|------------2---------|
G|------2-----2----|------0-------0-----|--------3-------3-----|
D|---2-----------2-|---0--------------0-|----0---------------0-|
A|0----------------|--------------------|----------------------|
E|-----------------|3-------------------|2---------------------|
A G D/F

E|------------------|--------------------|---------------------|
B|---------2--------|---------2----------|-----------3---------|
G|------3-------3---|------2-------2-----|-------0-------0-----|
D|---0--------0---0-|---2--------2---2p0-|---0---------------0-|
A|------------------|0-------------------|---------------------|
E|2-----------------|--------------------|3--------------------|
A G

E|---------2-------|---------2-----2----|----------------------|
B|------3-----3----|------3------3---3--|------------2---------|
G|---2-----------2-|---2---------------2|--------2-------2-----|
D|0----------------|0-------------------|----2---------------2-|
A|-----------------|--------------------|0---------------------|
E|-----------------|--------------------|----------------------|
D A

E|3------3---3--------|--------------------|-------------------|
B|-----3---3----------|-------3---3--------|-------3---3-------|
G|---0------------0---|-----2---2------2---|-----2---2-----2---|
D|--------------0---0-|---0----------0---0-|---0---------0---0-|
A|--------------------|--------------------|-------------------|
E|3-------------------|2-------------------|2------------------|
G D/F#

E|----------------------|-----------3--------|---------2-------|
B|-------2---2----------|-------3------3-----|------3-----3----|
G|-----2---2------2-----|-----0---0------0---|---2-----------2-|
D|---2----------2---2p0-|---0--------------0-|0----------------|
A|0---------------------|--------------------|-----------------|
E|----------------------|3-------------------|-----------------|
A G D

E|3---3-3-3-3-3-3-3-3-3-3-|
B|2---2-2-2-2-2-2-2-2-2-2-|
G|3---3-3-3-3-3-3-3-3-3-3-|
D|0---0-----0-----0-----0-|
A|------------------------|
E|------------------------|


1st Chorus:

  Em         Bm          F#
E|0-0-0-0----------0-|2--2-2-2----------2-|2--2-2-2----------2-|
B|0-0-0-0----------0-|3--3-3-3-3--3--3--3-|2--2-2-2----------2-|
G|0-0-0-0-0--0--0--0-|4--4-4-4-4--4--4--4-|3--3-3-3-3--3--3--3-|
D|2-2-2-2-2--2--2--2-|4--4-4-4-4--4--4--4-|4--4-4-4-4--4--4--4-|
A|2-------2--2--2--2-|2--------2--2--2--2-|4--------4--4--4--4-|
E|0-------0--0--0--0-|--------------------|2--------2--2--2--2-|

Em Bm F#
E|0---0-0-0-----0---0---0-|2---2-2-2-------------2-|2--|
B|0---0-0-0-----0---0---0-|2---2-2-2-------------2-|3--|
G|0---0-0-0-0---0---0---0-|3---3-3-3-3---3---3---3-|4--|
D|2---2-2-2-2---2---2---2-|4---4-4-4-4---4---4---4-|4--|
A|2---------2---2---2---2-|4---------4---4---4---4-|2--|
E|0---------0---0---0---0-|2---------2---2---2---2-|---|

2nd Verse:

E|-----------------|--------------------|--------2---2---------|
B|---------2-------|-------3---3--------|------3---3-----------|
G|------2-----2----|-----0---0------0---|----2-------------2---|
D|---2-----------2-|---0----------0---0-|----------------0---0-|
A|0----------------|--------------------|----------------------|
E|-----------------|3-------------------|2---------------------|
A G D/F#

E|--------------------|---------------------|------------------|
B|-------3---3--------|-------2---2---------|------3---3-------|
G|-----2---2------2---|-----2---2-----2-----|----0---0-----0---|
D|---0----------0---0-|---2---------2---2p0-|--0---------0---0-|
A|--------------------|0--------------------|------------------|
E|2-------------------|---------------------|3-----------------|
A G

E|--------2---2-------|---------2---2-----|--------------------|
B|------3---3-----3---|------3----3---3---|------2---2---------|
G|----2---------2---2-|---2-------------2-|----2---2-----2-----|
D|0-------------------|0------------------|--2---------2---2p0-|
A|--------------------|-------------------|0-------------------|
E|--------------------|-------------------|--------------------|
D A

E|--------------------|-------------------|--------------------|
B|--------3---3-------|------3---3--------|-------3---3--------|
G|------0---0-----0---|----2---2------2---|-----2---2------2---|
D|----0---------0---0-|--0----------0---0-|---0----------0---0-|
A|--------------------|-------------------|--------------------|
E|3-------------------|2------------------|2-------------------|
G D/F#

E|---------------------|--------------------|---------2--------|
B|-------2---2---------|-------3---3--------|------3-----3-----|
G|-----2---2-----2-----|-----0---0------0---|---2------------2-|
D|---2---------2---2p0-|---0----------0---0-|0-----------------|
A|0--------------------|--------------------|------------------|
E|---------------------|3-------------------|------------------|
A G D

E|3---3-3-3-3-3-3-3-3-3-3-|
B|2---2-2-2-2-2-2-2-2-2-2-|
G|3---3-3-3-3-3-3-3-3-3-3-|
D|0---0-----0-----0-----0-|
A|------------------------|
E|------------------------|

2nd Chorus:

E|0--0-0-0----------0|2--2-2-2----------2-|------------------2-|
B|0--0-0-0----------0|3--3-3-3-3--3--3--3-|0--0-0-0-0--0--2--2-|
G|0--0-0-0-0--0--0--0|4--4-4-4-4--4--4--4-|3--3-3-3-3--3--3--3-|
D|2--2-2-2-2--2--2--2|4--4-4-4-4--4--4--4-|4--4-4-4-4--4--4--4-|
A|2--------2--2--2--2|2--------2--2--2--2-|4--------4--4--4--4-|
E|0--------0--0--0--0|--------------------|---------------2--2-|
Em Bm F#

E|0-0-0-0----0--0--0-|2--2-2-2----------2-|2--2-2-2----------2-|
B|0-0-0-0----0--0--0-|2--2-2-2----------2-|3--3-3-3-3--3--3--3-|
G|0-0-0-0-0--0--0--0-|3--3-3-3-3--3--3--3-|4--4-4-4-4--4--4--4-|
D|2-2-2-2-2--2--2--2-|4--4-4-4-4--4--4--4-|4--4-4-4-4--4--4--4-|
A|2-------2--2--2--2-|4--------4--4--4--4-|2--------2--2--2--2-|
E|0-------0--0--0--0-|2--------2--2--2--2-|--------------------|

E|------------------|--------------------|---------------------|
B|----------3--3--3-|---------3--3--3--3-|---------3--3--3-3-3-|
G|4-4-4-4-4-4--4--4-|---4-4-4-4--4--4--4-|---0-0-0-0--0--0-0-0-|
D|4-4-4-4-4-4--4--4-|---4-4-4-4--4--4--4-|0--0-0-0-0--0--0-0-0-|
A|0-0-0-0-0-0--0--0-|--------------------|2--2-2-2-2--2--2-2-2-|
E|------------------|4-------------------|3-----------3--3-3-3-|
Bm/A Bm/Ab G

E|0-------0-0-0-0-0-|3----------3--3-3-3-|0--------0--0--0-0-0-|
B|0-------0-0-0-0-0-|3----------3--3-3-3-|0--------0--0--0-0-0-|
G|0-0-0-0-0-0-0-0-0-|0-0-0-0-0--0--0-0-0-|0--0-0-0-0--0--0-0-0-|
D|2-2-2-2-2-2-2-2-2-|0-0-0-0-0--0--0-0-0-|2--2-2-2-2--2--2-2-2-|
A|2-2-2-2-2-2-2-2-2-|2-2-2-2-2--2--2-2-2-|2--2-2-2-2--2--2-2-2-|
E|0-------0-0-0-0-0-|3-------3--3--3-3-3-|0--------0--0--0-0-0-|
Em G Em

E|2---------2---2---2---2-|
B|2---------2---2---2---2-|
G|3---3-3-3-3---3---3---3-|
D|4---4-4-4-4---4---4---4-|
A|4---4-4-4-4---4---4---4-|
E|2---------2---2---2---2-|
F#

Middle Section:

E|-----------------|--------------------|----------------------|
B|---------3-------|-----------3--------|------------0---------|
G|------4-----4----|-----4---4----4-----|------4---4-----4-----|
D|---4-----------4-|---4---4----------4-|----4---4-----------4-|
A|2----------------|0-------------------|----------------------|
E|-----------------|--------------------|4---------------------|
Bm Bm/A Bm/Ab

E|---------------------|---------------------|---------3-------|
B|------------0--------|------------0--------|-----------------|
G|------4---4---4------|--------0-------0----|------0-----0----|
D|----4---4----------4-|----2--------------2-|---0-----------0-|
A|---------------------|---------------------|-----------------|
E|3--------------------|0--------------------|3----------------|
Bm/G Em G

E|-----------------|--------------------|----------------------|
B|---------0-------|----------2---------|------------3---------|
G|------0-----0----|------3-------3-----|--------4-------4-----|
D|---2-----------0-|---4--------------4-|----4---------------4-|
A|-----------------|--------------------|2---------------------|
E|0----------------|2-------------------|----------------------|
Em F# Bm

E|-----------------|--------------------|----------------------|
B|---------3-------|----------3---------|------------3---------|
G|------4-----4----|------0-------0-----|--------2-------2-----|
D|---4-----------4-|---0--------------0-|----0---------------0-|
A|0----------------|--------------------|----------------------|
E|-----------------|3-------------------|2---------------------|
Bm/A G D/F#

E|-----------------|--------------------|----------2-----------|
B|---------2-------|----------3---------|------3-------3-----3-|
G|------2-----2----|------0-------0-----|---2--------------2---|
D|---2-----------2-|---0--------------0-|0---------------------|
A|0----------------|--------------------|----------------------|
E|-----------------|3-------------------|----------------------|
A G D

E|------------2---------|
B|--------3-------3-----|
G|----2---------------2-|
D|0---------------------|
A|----------------------|
E|----------------------|

Instrumental:

E|-----------------|---------------------|-------2---2---------|
B|---------2-------|-------3---3---------|-----3---3-----------|
G|------2-----2----|-----0---0-------0---|---2-------------2---|
D|---2-----------2-|---0-----------0---0-|---------------0---0-|
A|0----------------|---------------------|---------------------|
E|-----------------|3--------------------|2--------------------|
A G D/F#

E|-------------------|---------------------|-------------------|
B|-------3---3-------|-------2---2---------|-------3---3-------|
G|-----2---2-----2---|-----2---2-----2-----|-----0---0-----0---|
D|---0---------0---0-|---2---------2---2p0-|---0---------0---0-|
A|-------------------|0--------------------|-------------------|
E|2------------------|---------------------|3------------------|
A G

E|--------2---2-------|-------2----2-----|---------------------|
B|-----3----3-----3---|----3-----3---3---|-------2---2---------|
G|---2----------2---2-|--2-------------2-|-----2---2-----2-----|
D|0-------------------|0-----------------|---2---------2---2p0-|
A|--------------------|------------------|0--------------------|
E|--------------------|------------------|---------------------|
D A

E|------------------|-------------------|----------------------|
B|------3---3-------|------3---3--------|--------3---3---------|
G|----0---0-----0---|----2---2------2---|------2---2-------2---|
D|--0---------0---0-|--0----------0---0-|----0-----------0---0-|
A|------------------|-------------------|----------------------|
E|3-----------------|2------------------|2---------------------|
G D/F#

E|--------------------|--------------------|---------2---------|
B|------2---2---------|------3---3---------|------3------3-----|
G|----2---2-----2-----|----0---0-------0---|---2-------------2-|
D|--2---------2---2p0-|--0-----------0---0-|0------------------|
A|0-------------------|--------------------|-------------------|
E|--------------------|3-------------------|-------------------|
A G D

E|3---3-3-3-3-3-3-3-3-3-3-|
B|2---2-2-2-2-2-2-2-2-2-2-|
G|3---3-3-3-3-3-3-3-3-3-3-|
D|0---0-----0-----0-----0-|
A|------------------------|
E|------------------------|

E|0-0-0-0----------0-|2--2-2-2----------2-|------------------2-|
B|0-0-0-0----------0-|3--3-3-3-3--3--3--3-|0--0-0-0-0--0--2--2-|
G|0-0-0-0-0--0--0--0-|4--4-4-4-4--4--4--4-|3--3-3-3-3--3--3--3-|
D|2-2-2-2-2--2--2--2-|4--4-4-4-4--4--4--4-|4--4-4-4-4--4--4--4-|
A|2-------2--2--2--2-|2--------2--2--2--2-|4--------4--4--4--4-|
E|0-------0--0--0--0-|--------------------|---------------2--2-|
A Bm F#

E|0-0-0-0---0--------|2--2-2-2----------2-|2--2-2-2----------2-|
B|0-0-0-0---0--------|2--2-2-2----------2-|3--3-3-3-3--3--3--3-|
G|0-0-0-0-0-0--------|3--3-3-3-3--3--3--3-|4--4-4-4-4--4--4--4-|
D|2-2-2-2-2-2--------|4--4-4-4-4--4--4--4-|4--4-4-4-4--4--4--4-|
A|2-------2-2--2-2---|4--------4--4--4--4-|2--------2--2--2--2-|
E|0-------0-0--0-0-1-|2--------2--2--2--2-|--------------------|

E|-------------------|--------------------|--------------------|
B|-----------3--3--3-|--------3--3--3---3-|---------3-3--3-3-3-|
G|4-4-4-4-4--4--4--4-|--4-4-4-4--4--4---4-|---0-0-0-0-0--0-0-0-|
D|4-4-4-4-4--4--4--4-|--4-4-4-4--4--4---4-|0--0-0-0-0-0--0-0-0-|
A|0-0-0-0-0--0--0--0-|--------------------|2--2-2-2-2-2--2-2-2-|
E|-------------------|4-------------------|3----------3--3-3-3-|
Bm/A Bm/Ab G

E|0-------0-0--0-0-0-|3----------3--3-3-3-|0-------0--0--0-0-0-|
B|0-------0-0--0-0-0-|3----------3--3-3-3-|0-------0--0--0-0-0-|
G|0-0-0-0-0-0--0-0-0-|0--0-0-0-0-0--0-0-0-|0-0-0-0-0--0--0-0-0-|
D|2-2-2-2-2-2--2-2-2-|0--0-0-0-0-0--0-0-0-|2-2-2-2-2--2--2-2-2-|
A|2-2-2-2-2-2--2-2-2-|2--2-2-2-2-2--2-2-2-|2-2-2-2-2--2--2-2-2-|
E|0-------0-0--0-0-0-|3--------3-3--3-3-3-|0-------0--0--0-0-0-|
Em G Em

E|2---------2---2---2---2-|
B|2---------2---2---2---2-|
G|3---3-3-3-3---3---3---3-|
D|4---4-4-4-4---4---4---4-|
A|4---4-4-4-4---4---4---4-|
E|2---------2---2---2---2-|
F#

E|2-------2-2-2-2-2-|--------------------|---------------3-3-3-|
B|3-3-3-3-3-3-3-3-3-|3-------3--3--3-3-3-|3--------3--3--3-3-3-|
G|4-4-4-4-4-4-4-4-4-|4-4-4-4-4--4--4-4-4-|0--0-0-0-0--0--0-0-0-|
D|4-4-4-4-4-4-4-4-4-|4-4-4-4-4--4--4-4-4-|0--0-0-0-0--0--0-0-0-|
A|2-------2-2-2-2-2-|0-------0--0--0-0-0-|2--2-2-2-2--2--2-2-2-|
E|------------------|--------------------|3--------3--3--3-3-3-|
Bm Bm/A G

E|-------------3-3-3-|0--------0--0--0--0-|--------------------|
B|2-------2-2--2-2-2-|2--2-2-2-2--2--2--2-|3--------3--3--3--3-|
G|3-3-3-3-3-3--3-3-3-|2--2-2-2-2--2--2--2-|0--0-0-0-0--0--0--0-|
D|0-0-0-0-0-0--0-0-0-|2--2-2-2-2--2--2--2-|0--0-0-0-0--0--0--0-|
A|0-0-0-0-0-0--0-0-0-|0--------0--0--0--0-|2--2-2-2-2--2--2--2-|
E|2-------2-2--2-2-2-|--------------------|3--------3--3--3--3-|
D/F# A G

E|2-----------2---------|------------2---------|
B|3---------3-----3-----|--------3-------3-----|
G|2-------2-----------2-|----2---------------2-|
D|0-----0---------------|0---------------------|
A|----------------------|----------------------|
E|----------------------|----------------------|

Ending:

E|-----------------|--------------------|----------------------|
B|---------2-------|---------3----------|------------3---------|
G|------2-----2----|------0-----0-------|--------2-------2-----|
D|---2-----------2-|---0------------0---|----0---------------0-|
A|0----------------|--------------------|----------------------|
E|-----------------|3-------------------|2---------------------|
A G D/F#

E|----------------|---------------------|----------------------|
B|--------3-------|---------2-----------|------------3---------|
G|-----2-----2----|------2------2-------|--------0-------0-----|
D|--0-----------0-|---2-------------2---|----0---------------0-|
A|----------------|0--------------------|----------------------|
E|2---------------|---------------------|3---------------------|
A G

E|------------3-----------|---|
B|--------2-------2-------|---|
G|----3---------------3---|-3-|
D|0-----------------------|-0-|
A|------------------------|---|
E|------------------------|---|

 

 

 
 
 
     
 
 
 

инженеров.netДомашняя страницаНезависимый морской сайтПортал для гитаристовПриколы, юмор, анекдоты

 
обновлен 24.12.2011
в сети с 06.03.2004
 
 
Неофициальный морской сайт Домашняя страница Яндекс цитирования Internet Map Rambler's Top100
Учет посещений на народе

все тексты песен являются собственностью их автора. песени взяты из открытых источников. на сайте размещены с целью ознакомления. при использовании материалов сайта ссылка на сайт обязательна.

по всем вопросам стучитесь в асю или пишите на электропочту

идея, дизайн, редактирование Леха ZaG Загрядский

zagstudio