Аккорды для всех - сайт народных аккордов
 
Аккорды и тексты песен
Guitar Pro табулатуры
Уроки игры на гитаре
Таблица аккордов
Бесплатные программы для музыкантов
Фотографии музыкантов
Видеоклипы
Каталог ссылок
Обратная связь
На главную страницу
 
 
     
 
 

Аккорды, песни, текст, табулатура



Моральный Кодекс - Первый снег (3 вариант)


Соло:
E|----------------------------------------|
B|----------------------------------------|
G|----------------------------------------|
D|-6-5--6--------5---3-5-5h6--6-6-5-3-----|
A|-----------2-3----------------------6-3-|
E|----------------------------------------|

E|-----------------------------------------|
B|-----------------------------------------|
G|-----------------------5h6---------------|
D|-6-5--6--------5---5-6----3------6-5-3-3-|
A|-----------2-3---------------------------|
E|-----------------------------------------|

Fm
Карабас-Барабас опрокинул бас,
C#
Дуремар убежал в кусты,
Bm
Пикассо и Дали были на мели,
Fm
Продавали свои холсты.

Fm
Короли и шуты открывали рты,
C#
Округляли в глазах нули,
Bm
А Матисс и Ван Гог распивали грог,
C
Светотени свои плели.

Припев:
           Fm          Cm
   Первый луч, первый дождь
         C#                 G#
   По весеннему Арбату ты идешь
            Fm           Cm
   Первый звук, первый снег
        Bm                  C#
   Это песня о тебе и обо мне
           Fm          Cm
   Первый луч, первый дождь
         C#                  G#
   По весеннему Арбату ты идешь
            Fm           Cm
   Первый звук, первый снег
        Bm          C#       Fm
   Это песня о тебе и обо мне

Короли и народы ели бутерброд,
А он падал все маслом вниз,
И один генерал по TV сказал,
Что на Марсе не будет виз.

Журналист и актер затевали спор
О высоком, о роли муз,
А битлы и Шекспир покоряли мир,
На волынках играли блюз.

Припев.

 

 

 
 
 
     
 
 
 

инженеров.netДомашняя страницаНезависимый морской сайтПортал для гитаристовПриколы, юмор, анекдоты

 
обновлен 24.12.2011
в сети с 06.03.2004
 
 
Неофициальный морской сайт Домашняя страница Яндекс цитирования Internet Map Rambler's Top100
Учет посещений на народе

все тексты песен являются собственностью их автора. песени взяты из открытых источников. на сайте размещены с целью ознакомления. при использовании материалов сайта ссылка на сайт обязательна.

по всем вопросам стучитесь в асю или пишите на электропочту

идея, дизайн, редактирование Леха ZaG Загрядский

zagstudio