Аккорды для всех - сайт народных аккордов
 
Аккорды и тексты песен
Guitar Pro табулатуры
Уроки игры на гитаре
Таблица аккордов
Бесплатные программы для музыкантов
Фотографии музыкантов
Видеоклипы
Каталог ссылок
Обратная связь
На главную страницу
 
 
     
 
 

Аккорды, песни, текст, табулатура



Metallica - Nothing Else Matters 


Что-то у многих проблемы с этим соляком... Попытаюсь
написать его попонятнее... Если не получится - ищите
сами.. или слушайте и подбирайте! :)
Играется на электрогитаре с использованием примочки.

E|-----------------------------|
B|-15/*------------------------|
G|-14----14/*--12(vibr)--14-12-|
D|-----------------------------|
A|-----------------------------|
E|-----------------------------|
сразу скажу, что ввел свои обозначения... буду пояснять
их после каждого такта...
Итак, "/*" - подтяжка струн(обеих) на 1 тон или на 2 лада
14/* - тоже подтяжка на тон, но с возвратом, то есть вы
когда подтягиваете имеете фактически звук на 16 ладу, а
потом возвращаетесь на 14.
(vibr)- обычное так называемое вибрато.

Дальше веселее :)
E|---------------------------------------|
B|---------------------------------------|
G|-11-(12)-11----11-------------12-14-12-|
D|------------14----12-14(vibr)----------|
A|---------------------------------------|
E|---------------------------------------|
Здесь "11-(12)-11" - хамер и пул, как говорят американцы,
то есть ставим палец (указательный) на 11 лад, извлекаем звук,
ударяем безымянным пальцем (не отпуская 11 лад) по 12 ладу и
производим обратное действие: срываем палец с 12 лада, чтобы
зазвучала нота фа# (на 11 ладу). Далее...

E|---------12-------12-----------------|
B|------12--------12---15~12---12------|
G|-14/*-------14/*-----------15--15-14-|
D|-------------------------------------|
A|-------------------------------------|
E|-------------------------------------|

Здесь снова появился пул "15~12" - извлекаем звук на 15,
срываем на 12 (т.е. 12 лад звучит за счет работы левой
руки, а не правой!!!)

E|---------------------------------|
B|-------14-14-13------------------|
G|-12----14-14-13-12(vibr)--(12)sl-|
D|----14---------------------------|
A|---------------------------------|
E|---------------------------------|

"(12)sl" - после того как вы повибрируете (vibr), вы не
играете снова 12 лад - просто выполняете слайд к началу грифа,
т.е. повибрировали (какое интересное слово! :) ) и сдвинули
руку с зажатыми струнами к началу грифа. (нисходящий слайд
называется).

E|-/sl15-14----15-14-15-15/17-17-|
B|----------12-------------------|
G|-------------------------------|
D|-------------------------------|
A|-------------------------------|
E|-------------------------------|
Здесь появился так называемый восходящий слайд ( "/sl15")? т.е.
вы касаетесь струн где-то в районе 12 лада и ведете рукой до
15. Повторю, что обозначение 15/17 означает слайд (зажимаете
15, извлекаете звук и скользите на 17)

E|-15--14-(15)-14-sl12----15-14--------------|
B|----------------------12-------12----------|
G|----------------------------------12-14-12-|
D|-------------------------------------------|
A|-------------------------------------------|
E|-------------------------------------------|
Снова пул и хамер ("14-(15)-14") со слайдом на 12 лад сразу
после постановки пальца на 14.

E|------------------------------12---------|
B|-15/*----------------------12----15-15/*-|
G|-14---(14)sl12----12-14/*----------------|
D|-----------------14----------------------|
A|-----------------------------------------|
E|-----------------------------------------|
здесь "/*"-подтяжка на 2 лада (или на тон) двух струн,затем
скользим на 12лад по 4 струне. в конце я уже не уверен, так как
там что-то быстрое играется... Сыграете что-нибудь сами. Если
сможете сыграть то, что я написал в темпе оригинала, то
концовка пролетит сама.

 

 

 
 
 
     
 
 
 

инженеров.netДомашняя страницаНезависимый морской сайтПортал для гитаристовПриколы, юмор, анекдоты

 
обновлен 24.12.2011
в сети с 06.03.2004
 
 
Неофициальный морской сайт Домашняя страница Яндекс цитирования Internet Map Rambler's Top100
Учет посещений на народе

все тексты песен являются собственностью их автора. песени взяты из открытых источников. на сайте размещены с целью ознакомления. при использовании материалов сайта ссылка на сайт обязательна.

по всем вопросам стучитесь в асю или пишите на электропочту

идея, дизайн, редактирование Леха ZaG Загрядский

zagstudio