Аккорды для всех - сайт народных аккордов
 
Аккорды и тексты песен
Guitar Pro табулатуры
Уроки игры на гитаре
Таблица аккордов
Бесплатные программы для музыкантов
Фотографии музыкантов
Видеоклипы
Каталог ссылок
Обратная связь
На главную страницу
 
 
     
 
 

Аккорды, песни, текст, табулатура



Metallica - King Nothing


Main Riff:  Tune guitars 1/2 step down   Fill1 (at bottom)

E|----------------------------------------------|
B|---------------- Bend1/4---Bend1/4------------|
G|-------------------^---------^----------------|
D|-------------------5---------5---------8----7-|
A|-----5--6--7---/7-----7---/7----7-------------|
E|-----0--0--0------------------------/6-----5--|
                 sl.        sl.       sl.

Guitar1:Версия s

E|-----------------------------------------------------|
B|.---------------------------------------------------.|
G|-----------------------------------------------------|
D|-----------------------------------------------------|
A|.x--2--2--5-------8--7-----x--2--5--2---8--8--7--5--.|
E|-x--0--0--3---/6--6--5--0--x--0--3--0---6--6--5--3---|

Wish I may, Wish I might, have this I wish tonight,
Are You satisfied?
Hot and cold, bought and sold,a heart as hard as gold,
Are you satisfied?

Guitar2:Версия s(Seconed Time Only)

E|-----------------------------|
B|-----------------------------|
G|---9----------------------9-|
D|---------Bend1/4-------------|
A|---7------^-----/8--8--7--7-|
E|--------0--3--0--/6--6--5----|

Dig for gold,Dig for fame,You dig to make your name,
Are you pacified?
Wish I might,Wish I may,You wish your life away,
Are you pacified?

                                         Full
E|----------------------------|------------------------Bend1/4-|
B|----------~~~~~-------------|--------~~~-------^--------^----|
G|----------5-----------------|--------5---7--5--7--5--7--7----|
D|---/7--7-----7--7--5--7-----|---/7-7--------Bend-Full--------|
A|-0--------------0--0--0---6-|-0----------and-back-down-------|
E|------------------------0-6-|--------------------------------|

All the wants you waste     All the things you've chased

  Guitar1:E5          G5                   F#5
E|---------------------------|----------------------------|
B|---------------------------|----------------------------|
G|--------------------5------|--------------4-------------|
D|2-------------------5------|--------------4-------------|
A|2-------------------3------|--------------2-------------|
E|0--------------------------|----------------------------|

And it all crashes down,and you break your crown

                          pm..............
E|---------------------------|----------------------------|
B|---------------------------|----------------------------|
G|---------------------------|----------------------------|
D|-----------------------2--2|-2--2--2--2--2--2-----2-----|
A|-----------------------0--0|-0--0--0--0--0--0-----2-----|
E|---------------------------|----------------------0-----|

And you point your finger but there's no one around

               G5                        F#5
E|---------------------------|----------------------------|
B|---------------------------|----------------------------|
G|--------------5------------|----------5-----------------|
D|--------------5------------|----------5-----------------|
A|--------------3------------|----------2-----------------|
E|---------------------------|----------------------------|

Just want one thing,Just to play the King

   F5
E|---------|----------------------------|
B|---------|----------------------------|
G|---------|----------------------------|
D|---------|----------------------------|
A|-1--1--1-|-1---1--1--1--1--1--1--1--1-|
E|-1--1--1-|--1--1--1--1--1--1--1--1--1-|

But the castle's crumbled and you're left with just a name

E|---13--------|
B|---16--------|
G|Unison bend--|
D|Bend 16 Full-|
A|-------------|
E|-------------|

Where's your crown King Nothing?

Guitar2:Guitar2 justs keep doing this over and over again

E|---------------------------------------|
B|.-------------------------------------.|
G|---9--9--9--9--9--9--9--9--9--9--9--9--|
D|---9--9--9--7--7--7--9--9--9--9--9--9--|
A|.--7--7--7--7--7--7--7--7--7--7--7--7-.|
E|---0--0--0--0--0--0--0--0--0--0--0--0--|

Fill 1(For Beginning)

E|-------------------------------------------------------------|
B|-12----12------------p-----------------p--------------p------|
G|-12----12------12--14-12------12--12-14-12----12-12-14-12----|
D|----14-----14-------------14---------------14-------------14-|
A|-------------------------------------------------------------|
E|-------------------------------------------------------------|

*Solo:
      ^            ^     ^    ^
E|----12-----^-----12----14---15---|-----12-0-14-0-15-0-14-0---|
B|----15----11-----15----17---18---|-/14--------------------15-|
G|----------13---------------------|---------------------------|
D|---------------------------------|---------------------------|
A|---------------------------------|---------------------------|
E|---------------------------------|---------------------------|
    *Bend all bottom notes full
       ^     p      ^   p  ^
E|-12--12-|-15-12-0-12-15-12-0-12-12-0--14--0--15--0--14--0----|
B|-----15.|---------15---------15---------------------------15-|
G|--------|----------------------------------------------------|
D|--------|----------------------------------------------------|
A|-------.|----------------------------------------------------|
E|--------|----------------------------------------------------|

E|-/17-17-17-20-------17-----------------------17--17--17--20--|
B|--------------20-20-----17-17-20-----------------------------|
G|----------------------------------19--19--19-----------------|
D|-------------------------------------------------------------|
A|-------------------------------------------------------------|
E|-------------------------------------------------------------|

E|---------17------^---^----------12---p-----^---12---p-----^--|
B|-20--20-----17--17--17--- ^---^----15-12--15------15-12--15--|
G|----------------19--19---15--15----------Full-----------Full-|
D|--------------------------Full-------------------------------|
A|-------------------------------------------------------------|
E|-------------------------------------------------------------|

E|----------p--------Н--p--------------------------------------|
B|--^--12-15-12----12-15-12----12------p--------Н---~~~12-14-14|
G|-14-----------14----------14----14-14-12----12-14-12-12-14-14|
D|Full-------------------------------------14------------------|
A|-------------------------------------------------------------|
E|-------------------------------------------------------------|

                    ^        p            p
E|--------12--12-15-12----12-15-12---p-------------------------|
B|15-14---15-----------15----------15-12--^-----Н--p-----------|
G|15-14-Bend15---------------------------14---12-15-12---p-----|
D|-------Full---------------------------Full-----------14-12---|
A|-----------------------------------------------------------14|
E|-------------------------------------------------------------|

E|---------------------------------------------------------12-|
B|---Н--p--------------------------------------------------12-|
G|-12-14-12-14-12--^-------^-------^-------^-------------------|
D|----------------14--14--14--14--14--14--14--12--~~~~~~~------|
A|----------------1/2-----------------------------14-----------|
E|-------------------------------------------------------------|

Well,there it is King Nothing.It isn't
the exact thing but it's close enough
I'll try to add more to it if I get the time.

KING NOTHING
(Hetfield/Ulrich/Hammett)

Wish I may
Wish I might
Have this I wish tonight
Are you satisfied?
Dig for gold
Dig for fame
You dig to make your name
Are you pacified?

All the wants you waste
All the things you've chased
Then it all crashes down
And you break your crown
And you point your finger, but there's no one around
Just want one thing
Just to play the King
But the castle's crumbled and you're left with just a name
Where's your crown, King Nothing?
Where's your crown?

Hot and cold
Bought and sold
A heart as hard as gold
Yeah! Are you satisfied?
Wish I might, Wish I may
You wish your life away
Are you pacified?

All the wants you waste
All the things you've chased
Then it all crashes down
And you break your crown
And you point your finger, but there's no one around
Just want one thing
Just to play the King
But the castle's crumbled and you're left with just a name
Where's your crown, King Nothing?
Where's your crown?

Wish I may, wish I might
Have this wish, I wish tonight
I want that star, I want it now
I want it all and I don't care how

Care for what you wish
Care for what you say
Care for what you wish you may regret it
Care for what you wish you just might get it

Then it all crashes down
And you break your crown
And you point your finger, but there's no one around
Just want one thing
Just to play the King
But the castle's crumbled and you're left with just a name
Where's your crown, King Nothing?

Oh, You're just nothing
Where's your crown King Nothing?
Oh, you're just nothing
Absolutely Nothing
Off to never, never land

 

 

 
 
 
     
 
 
 

инженеров.netДомашняя страницаНезависимый морской сайтПортал для гитаристовПриколы, юмор, анекдоты

 
обновлен 24.12.2011
в сети с 06.03.2004
 
 
Неофициальный морской сайт Домашняя страница Яндекс цитирования Internet Map Rambler's Top100
Учет посещений на народе

все тексты песен являются собственностью их автора. песени взяты из открытых источников. на сайте размещены с целью ознакомления. при использовании материалов сайта ссылка на сайт обязательна.

по всем вопросам стучитесь в асю или пишите на электропочту

идея, дизайн, редактирование Леха ZaG Загрядский

zagstudio