Аккорды для всех - сайт народных аккордов
 
Аккорды и тексты песен
Guitar Pro табулатуры
Уроки игры на гитаре
Таблица аккордов
Бесплатные программы для музыкантов
Фотографии музыкантов
Видеоклипы
Каталог ссылок
Обратная связь
На главную страницу
 
 
     
 
 

Аккорды, песни, текст, табулатура



Metallica - Where The Wild Things Are 


Intro:
So wake up sleepy one

G|-----|
D|-----|
A|-73-|
E|-----|

Its time to save your world

G|---------------------|
D|---------------------|
A|-73---3//////////14-|
E|---------------------|

G|----------------------------------------|
D|----------------------------------------|
A|----------------------------------------|
E|-12\1-00---00001111-1000-0000/3333-000-|

Steal Dreams and Give to you.

G|--------------------|
D|--------------------|
A|--------------------|
E|-03333333h5p3003000-| repeat x9

All you children touch the sun

G|-------------------------------------------|
D|-777777766666663333333------Play as--------|
A|-555555544444441111111------Power Chords---|
E|----------------------------------03333333-|
So wake up sleepy one

G|----------------5-----------------------|
D|----------------------------------------|
A|-7///////3---------------3--------------|
E|----------------------------01////////8-|
B|--------------------1-------------------|

This Riff occurs throughout the chorus part, it has a few
slight variations, but If this is played it will sound fine.
The Low C on the 1st fret of the B-stg. Can be substituted an
octave higher. These Riffs make up most of the song.

Guitar Solo Backing-

G|------------------------------------|
D|------------------------------------|
A|------------------------------------|
E|-33330333-----033333033-3333300-12-|

Bride Riff: You swing your rattle down (Crossfire from the
marionettes.) Let all the Low E`s ring throughout the riff.
The 19`s and 20`s mean 19th and 20th fret on the E-stg.

G|-----------------------------------|
D|-----------------------------------|
A|-2020202020-19----19--19--19-------|
E|---------------------00----0---0-0-|

A|-888887-----7----7---7-|
E|-----------00-0-0--0---|

Then

E|-111110-00010110----1111110-|

 

 

 
 
 
     
 
 
 

инженеров.netДомашняя страницаНезависимый морской сайтПортал для гитаристовПриколы, юмор, анекдоты

 
обновлен 24.12.2011
в сети с 06.03.2004
 
 
Неофициальный морской сайт Домашняя страница Яндекс цитирования Internet Map Rambler's Top100
Учет посещений на народе

все тексты песен являются собственностью их автора. песени взяты из открытых источников. на сайте размещены с целью ознакомления. при использовании материалов сайта ссылка на сайт обязательна.

по всем вопросам стучитесь в асю или пишите на электропочту

идея, дизайн, редактирование Леха ZaG Загрядский

zagstudio