Аккорды для всех - сайт народных аккордов
 
Аккорды и тексты песен
Guitar Pro табулатуры
Уроки игры на гитаре
Таблица аккордов
Бесплатные программы для музыкантов
Фотографии музыкантов
Видеоклипы
Каталог ссылок
Обратная связь
На главную страницу
 
 
     
 
 

Аккорды, песни, текст, табулатура



Metallica - Thorn within


(Проигрыш Riff)        (Lead thing Проигрыш)
Gb|----------2-|     Bb|-1/3--4--3--1-----|
Db|-2---2----2-|     Gb|---------------2--|
Ab|-2---2----0-|     Db|------------------|
Eb|-0-3-0--3---|     Ab|------------------|

(Descend Riff)
Ab|---4---3---2---1---0-----4--4--4-4-0--5--4p0-:|
Eb|-2---2---2---2---2---0-0-2--2--2-2-0--3--2p0-:|

Eb|------------------------------------------------------|
Bb|------------------------------------------------------|
Gb|------------------------------------------4---4-6---6-|
Db|-7-(7)--4-7-7/9-(9)--9/1097-5---5-4---4-------------|
Ab|------------------------------------------------------|
Eb|-5-(5)------------------------------------------------|

with distortion
Eb|----------------------------------------------------------|
Bb|----------------------------------------------------------|
Gb|----------------------------------------------------------|
Db|----------------------------------------------4--4-6--6-6-|
Ab|---5-5/7--(7)--7-7/9--(9)----------5---5-4--4-2--2-4--4-4-|
Eb|-0-3-3/5--(5)--5-5/7--(7)-7/875--3---3-2--2-------------|

before the solo
Ab|--7-6-|-5-5--5--5--5-5--5--5--5-5--
Eb|--5-4-|-3-3--3--3--3-3--3--3--3-3--

solo
Eb|------------------------------------------------------------|
Bb|----/Full-------------------------/F----------------------|
Gb|-12/------12-------------------14/---14-11------11^9 11^9-|
Db|--------------10----------10-12----------------12-----------|
Ab|-----------------12-10-12-------------------14--------------|
Eb|------------------------------------------------------------|

Eb|------------------------------------------------------------|
Bb|----/F-----------------------------------------------------|
Gb|-11/---11-9------------------------------------------------|
Db|------------12-11-11^12^11----------11-12-------11-12-14-11-|
Ab|---------------------------13-13-14-------14-14-------------|
Eb|------------------------------------------------------------|

THORN WITHIN
(Hetfield/Ulrich/Hammett)

Forgive me father
For I Have sinned
Find me guilty of the life I feel within

When I'm branded
This mark of shame
So I look down disgraced for saying I know that you must feel

I am, I am the secret
I am, I am the sin
I am, I am the guilty
And I, I am the thorn within

Forgive me father
For I Have sinned
Find me guilty with true guilt that's from within

So point your fingers
Point right at me
For I am shadows and will follow you whatever see my way

I am, I am the secret
I am, I am the sin
I am, I am the guilty
And I, I am the thorn within

I do your time
I take your fall
I'm branded guilty for a soul

So point your fingers
Point right at me
For I am shadows and will follow you whatever see my way

I am, I am your secrets
I am, I am your sin
I am, I am your guilty
And I, I am the thorn within
I am the thorn within
I am the thorn within
I am the thorn within

 

 

 
 
 
     
 
 
 

инженеров.netДомашняя страницаНезависимый морской сайтПортал для гитаристовПриколы, юмор, анекдоты

 
обновлен 24.12.2011
в сети с 06.03.2004
 
 
Неофициальный морской сайт Домашняя страница Яндекс цитирования Internet Map Rambler's Top100
Учет посещений на народе

все тексты песен являются собственностью их автора. песени взяты из открытых источников. на сайте размещены с целью ознакомления. при использовании материалов сайта ссылка на сайт обязательна.

по всем вопросам стучитесь в асю или пишите на электропочту

идея, дизайн, редактирование Леха ZaG Загрядский

zagstudio