Аккорды для всех - сайт народных аккордов
 
Аккорды и тексты песен
Guitar Pro табулатуры
Уроки игры на гитаре
Таблица аккордов
Бесплатные программы для музыкантов
Фотографии музыкантов
Видеоклипы
Каталог ссылок
Обратная связь
На главную страницу
 
 
     
 
 

Аккорды, песни, текст, табулатура



Metallica - The Call of Cthulhu 


1)
E|---5---------5---|---6---------6---|
B|-------6---5---6-|-------6-------6-|
G|-----7-----------|-----7-----9-----|
D|-0-------7-------|-0-------8-------|
A|-----------------|-----------------|
E|-----------------|-----------------|

E|---8----------8---|---5---------5---|
B|-------8--------8-|-------6-------6-|
G|-----9------9-----|-----7-----7-----|
D|-0-------10-------|-0-------7-------|
A|------------------|-----------------|
E|------------------|-----------------|

Каждая часть вступления играется по 2 раза.

2)
E|---------0----------------0-------|
B|-------0---0------------0---0-----|
G|-----5-------5--------5-------5---|
D|---7----------------7-----------7-|
A|-0-------------7--6---------------|
E|----------------------------------|
(0:32)

3)
E|-------1-|-------1-|-------1-|-------5-|
B|-----3---|-----3---|-----3---|-----3---|
G|---2-----|---3-----|---4-----|---5-----|
D|-0-------|-0-------|-0-------|-0-------|
A|---------|---------|---------|---------|
E|---------|---------|---------|---------|
Сначала играется чисто, а пото – с distortion.
(0:46)

4)
G|---------------------------------|
D|-----------------9-8-8-8-8-8-8/9-|
A|-7-7-7-7-6-7-6-7-7-6-6-6-6-6-6/7-|
E|-5-5-5-5-4-5-4-5-----------------|

Distorted
(2:25)

5)
E|--1-1-1-1--1-1-1-1--1-1-1-1--5-5-5-5-|
B|--3-3-3-3--3-3-3-3--3-3-3-3--3-3-3-3-|
G|--2-2-2-2--3-3-3-3--4-4-4-4--5-5-5-5-|
D|--0-0-0-0--0-0-0-0--0-0-0-0--0-0-0-0-|
A|-------------------------------------|
E|-------------------------------------|
(2:37)

6a)
D|---------------------------------------------------------|
A|-2-------0-2-3-3-------0-2-3-4-------0-2-3-5-------3-2-0-|
E|-0-0-0-0-------1-1-1-1-------2-2-2-2-------3-3-3-3-------|
Distorted

6b)
D|---------------------------------------------------------|
A|-2-------0-2-3-3-------0-2-3-4-------0-2-3-5-------5-3-2-|
E|-0-0-0-0-------1-1-1-1-------2-2-2-2-------3-3-3-3-------|

Distorted
(3:20 c a по b)

6c)
D|--------------------------------------------------------|
A|--5-------3-5-6-6-------3-5-6-7-------5-6-8-8-----8-6-5-|
E|--3-3-3-3-------4-4-4-4-------5-5-5-5-------6-6-6-------|
(3:47 для c)

7)
G|-----------------------------------------------------------|
D|-7---7-9-10-9-7----7-9-10-9-7----7-9-10-9-7-----7-9-10-9-7-|
A|----------------8-------------9-------------10-------------|
E|-----------------------------------------------------------|

8)
G|--12--12-14-15-14-12-----12-14-15-14-12-----|
D|---------------------13-----------------14--|
A|--------------------------------------------|
E|--------------------------------------------|

G|-12-14-15-14-12-----12-14-15-14-12-|
D|----------------15-----------------|
A|-----------------------------------|
E|-----------------------------------|

Пре-соло
9a) Джеймс
G|--------------------------------|
D|----------------9---------------|
A|-5-4-4-4--5-2-2-7--5-4-4-4--5-2-|
E|-3-2-2-2--3-0-0----3-2-2-2--3-0-|

9b) Кирк
e-------------------------------------------------------------|
B--12-10-10-10--10h12---------12---12-10-10-10--10h12---------|
G---------------------11h12-9-------------------------11h12-9-|
D-------------------------------------------------------------|
A-------------------------------------------------------------|
E-------------------------------------------------------------|
После соло(6:55) distorted

10)
G|----------------------|
D|-7--5--7--3--7--10--7-|
A|-5--3--5--1--5--8---5-|
E|----------------------|
Здесь сыграть чисто вступление ещё разок…

соло:

Все 21лады подтягиваются чуть ли не на тон
E|--------------------------21-21-21-21-21-21-21-21-21-17-21-17|
B|17-21-21-21-21-21-21-21-17-----------------------------------|
G|-------------------------------------------------------------|
D|-------------------------------------------------------------|
A|-------------------------------------------------------------|
E|-------------------------------------------------------------|

E|--------------------------------------------------------|
B|-21-17--17-21-17----------------------------------------|
G|------20--------20-17--17-20-17-------------------------|
D|---------------------20--------20-17--17-20-17----------|
A|------------------------------------20--------20-17--17-|
E|---------------------------------------------------21---|

E|------------|
B|------------|
G|------------|
D|------------|
A|-20-17------|
E|------21-17-|

E|-12-10-9--10-9-----9--------------------------------|
B|--------12----12-10-12-10-9-12-10-9-----------------|
G|-----------------------------------11-9-13-11-9--11-|
D|-----------------------------------------------12---|
A|----------------------------------------------------|
E|----------------------------------------------------|

E|----------------|
B|----------------|
G|-9-----9--------|
D|--12-11-12-11-9-|
A|----------------|
E|----------------|

E|--------------------------------------------------|
B|--------------------------------------------------|
G|--------------------------------------------------|
D|-12-11-9----11-9-------11-------------------------|
A|---------12------12-11----12-11-9-12-11-9----11-9-|
E|------------------------------------------12------|

E|-----------------|
B|-----------------|
G|-----------------|
D|-----------------|
A|-------9---------|
E|-12-10---12-10-9-|

E|---------------------------------------------------|
B|---------------------------------------------------|
G|---------------------------------------------------|
D|-------------------------4h5h7----5-7-14t715t717t7-|
A|-------------------4h5h7-------5-7-----------------|
E|-12-10-94-0h5h7------------------------------------|

Играется насколько раз.

E|-------10/20-16----|
B|----10----------17-|
G|-10----------------|
D|-------------------|
A|-------------------|
E|-------------------|

E|--20-16---20-16---20-16---20-16------|
B|--------17------17------17-----17/19-|
G|-------------------------------------|
D|-------------------------------------|
A|-------------------------------------|
E|-------------------------------------|

E|-21-21-21-21-21-21-21-21-21-20-|
B|-------------------------------|
G|-------------------------------|
D|-------------------------------|
A|-------------------------------|
E|-------------------------------|

E|-18-21-20-18-20-19-17-20-19-17-18-17-15-18-17-15-|
B|-------------------------------------------------|
G|-------------------------------------------------|
D|-------------------------------------------------|
A|-------------------------------------------------|
E|-------------------------------------------------|

E|-15-13-12-15-13-12-|
B|-------------------|
G|-------------------|
D|-------------------|
A|-------------------|
E|-------------------|

E|-13-12-10-13-12-10-10-9-7-10-9-7-8-7-5-8-7-5-8-|
B|-----------------------------------------------|
G|-----------------------------------------------|
D|-----------------------------------------------|
A|-----------------------------------------------|
E|-----------------------------------------------|

E|-5-------------------|
B|-8-5-5-8-5-----------|
G|-----7-----7-5-5-7-5-|
D|--------------7------|
A|---------------------|
E|---------------------|

E|----------------------------------------------------|
B|----------------------------------------------------|
G|----------------------------------------------------|
D|-7-5-5-7-5------------------------------------------|
A|----7-----7-5---------------------------------------|
E|-------------8-5-10-5-8-10-5-8-10-5-8-10-5-8-10-8-5-|

E|---------------|
B|---------------|
G|---------------|
D|---------------|
A|---------------|
E|-10-5-8-10-5-8-|

E|-----------------------------------------------|
B|-----------------------------------------------|
G|----------------12-5-7-13-5-7-14-5-7-15-5-7-16-|
D|---------5-7-9---------------------------------|
A|------5-7--------------------------------------|
E|-10-8-5----------------------------------------|

E|-------------------|
B|-------------------|
G|-5-7-17-5-7-18-5-7-|
D|-------------------|
A|-------------------|
E|-------------------|

E|----------------------------------------------|
B|-19-5-7-20-5-7-21-5-7-22-5-7-23-5-7-24-5-7-24-|
G|----------------------------------------------|
D|----------------------------------------------|
A|----------------------------------------------|
E|----------------------------------------------|

Теперь бас:
(обозначения e, q и т.д. см. в последнем варианте Fade To Black)

G|-------------------|----------------|-------------------|
D|4:-Гитарное Intro.--|:---------------|------------------:|
A|4:------------------|:-0---------7---|-6----------(6)---:| x4
E|-------------------|----------------|-------------------|

G|----------------|---|    |----------------|----------------|
D|----------------|---|    |----------------|----------------|
A|-------R--------|-5-| x3 |5-5-5-5-5-5-5-5-|5-5-5-5--5-5--5-|
E|----------------|---|    |----------------|----------------|

Басовый Fill (вставка)#1
G|-----------------------|-------------------|
D|--------5-(5)H7-5-7----|-------------------|
A|--0-0-0-------------7--|--6-6-6-6-6-7------|
E|-----------------------|--------------8-7--|

Басовое соло
============
3ий и 4ый разы вместо Басового Fill #1

G|------------------------|-----------------|---------9-9-9---|
D|:-------(5)H7--5--7-----|-----------------|---------7-7-7---|
A|:-0--0----------------7-|-6-6-6-6--6-7--7-|-0-0--0--0-0-0-7-|
E|------------------------|-----------------|-----------------|

G|---------------------------|---------------------------|--------------------|
D|---------------------------|--------5-(5)H7--7-7-7-----|--------------------|
A|--6-6-6-6--6-(10)-(6/(10))-|--0-0-0----------------7---|--6-6-6-6--6-7------|
E|---------------------------|---------------------------|---------------8-7--|

G|----------------------|--------------------|------------------------|
D|--------5--7---(7)----|--------------------|--0-0-0-0--12-12-12-12--|
A|--0-0-0----0/------7--|---6-6-6-6--6-7--7--|------------------------|
E|----------------------|--------------------|------------------------|

G|--9-9-9-9--10-10-10-10--12-12-12-12--12-12-12-12--|------------------------|
D|--------------------------------------------------|--0-0-0-0--12-12-12-12--|
A|--------------------------------------------------|------------------------|
E|--------------------------------------------------|------------------------|

G|-------10----10-10--10-|------------------------|--10----12----14----12-14--|
D|--12---------12-12--12-|--0-0-0-0--12-12-12-12--|---------------------------|
A|-----------------------|------------------------|---------------------------|
E|-----------------------|------------------------|---------------------------|
                                                  ^
                                     Здесь уже по-другому.
                                     Когда доберётесь до этого момента,
                                     переходите к следующей партии 1-2-3-4 !

G|--15-14--12H14P12-14H15P14-12H14P12--|-14H15P14--12H14P12---15-14-12-14---|
D|-------------------------------------|-----------------------------------:|
A|-------------------------------------|-----------------------------------:|
E|-------------------------------------|------------------------------------|

G|-10-12-14-12-14-|-12-17-15-14-----15-14----|----14H15P14--------14H15P14-----|
D|----------------|--------------17-------17-|-17----------17--17----------17-:|
A|----------------|--------------------------|--------------------------------:|
E|----------------|--------------------------|---------------------------------|

G|--10----12----14------|-----------------12-14-12-|-14-12-15-14--17-15-17-19--|
D|----------------------|-12-14-15-12--15----------|--------------------------:|
A|----------------------|--------------------------|--------------------------:|
E|----------------------|--------------------------|---------------------------|

G|--------------------------|-14-14-14-14-14-14-14-14-10-10-10-10-10-10-10-10-|
D|-12-12-12-12--12-12-12-12-|-------------------------------------------------|
A|--------------------------|-------------------------------------------------|
E|--------------------------|-------------------------------------------------|

G|-12-12-12-12-12-12-12-12-12-12-12-12-12-12-12-12-|
D|-------------------------------------------------|
A|-------------------------------------------------|
E|-------------------------------------------------|

G|--------------------------|------------------------|-------------------------|
D|:-------------------------|------------------------|-------------------------|
A|:-------------0-----2--3--|--------------0--2---3--|-------------0-----2--3--|
E|--0--0--0--0-----0--------|--1--1--1--1------------|-2--2--2--2-----0--------|

G|------------------------|
D|-----------------------:|  x4
A|--5-----------3--2-----:|
E|-----3--3--3---------3--|

G|--------------------------|------------------------|-------------------------|
D|:-------------------------|------------------------|-------------------------|
A|:-------------3-----5--6--|--------------3--5---6--|-------------3-----5--6--|
E|--3--3--3--3-----3--------|--4--4--4--4------------|-5--5--5--5-----5--------|

G|-------------------------|
D|------------------------:|
A|--8-----------6--5------:|
E|-----6--6--6---------6---|

Гитарное соло --> Эта часть играется с Wah

G|-----------------------|------------------------|------------------------|
D|:----------5-5H7--7----|------------------------|----------5--7--7-7-7---|
A|:-0--0--0------------7-|-6--6--6--6--6--7--7/9--|-0--0--0--------------7-|
E|-----------------------|------------------------|------------------------|

G|---------------------|--------------------------|--------------------------|
D|----------------5--5-|-----------5--7-7-7-7-----|--------------------------|
A|-6--6--6--6--6--7--7-|--0--0--0--------------7--|--6--6--6--6--6--7--------|
E|---------------------|--------------------------|--------------------8--7--|

G|-----------------------|--------------------------|--------------------------|
D|----------------7------|--------------------------|--0--0--0--0--12-12-12-12-|
A|--0--0--0--0----0----7-|--6--6--6--6--6--7--7--7--|--------------------------|
E|-----------------------|--------------------------|--------------------------|

G|-------------------------|
D|-12-12-12-12-12-12-12-12-| Повторить 4 раза
A|-------------------------|
E|-------------------------|

G|-------------------------|-------------------------|-------------------------|
D|-12-12-14-14-15-15-14-14-|-12-12-12-12-12-12-12-12-|-12-12-12-12-12-12-12-12:|
A|-------------------------|-------------------------|------------------------:|
E|-------------------------|-------------------------|-------------------------|

G|-------------------------|-------------------------|-------------------------|
D|-12-12-12-12-12-12-12-12-|-12-12-12-12-12-12-12-12-|-12-12-12-12-12-12-12-12:|
A|-------------------------|-------------------------|------------------------:|
E|-------------------------|-------------------------|-------------------------|

G|--------------------------|------------------------|-------------------------|
D|:-----------5--7--5--7----|------------------------|----------5--7--5--7-----|
A|:--0--0--0--------------7-|-6--6--6--6--6--7-------|-0--0--0--------------7--|
E|--------------------------|-------------------8--7-|-------------------------|

G|------------------------|
D|-----------------5--5--:|
A|--6--6--6--6--6--7--7--:|
E|------------------------|

G|--------------------------|--------------------------|
D|--0--0--0--0--12-12-12-12-|--13-13-14-14-15-15-15-15-| х2
A|--------------------------|--------------------------|
E|--------------------------|--------------------------|

G|--------------------------|------------------12------|
D|--0--0--0--0--12-12-12-12-|--14-14-15-15-------------|
A|--------------------------|--------------------------|
E|--------------------------|--------------------------|

G|-12-14-12-14-12-14-12-14-12-14-12-|
D|----------------------------------|
A|----------------------------------|
E|----------------------------------|

G|-14-12-14-12-14-12-14-12-14-|
D|----------------------------|
A|----------------------------|
E|----------------------------|

G|--------------------------|------------------------|
D|:-------------------------|-----------------------:|
A|:-0-----------0-----2--3--|--0-----------0--2--3--:|  x4
E|-----0--0--0-----0--------|-----1--1--1------------|

G|--------------------------|------------------------|
D|:-------------------------|-----------------------:|
A|:-2-----------2-----4--5--|--2-----------2--4--5--:|  x4
E|-----2--2--2-----2--------|-----3--3--3------------|

G|--------------------------|-----------------------|
D|:-------------------------|----------------------:|
A|:-3-----------3-----5--6--|--3-----------3--5--6-:|   x3
E|-----3--3--3-----3--------|-----4--4--4-----------|

G|--------------------------|-----------------------|
D|:-------------------------|----------------------:|
A|:-5-----------5-----7--8--|--5-----------5--7--8-:|   x3
E|-----5--5--5-----5--------|-----6--6--6-----------|

G|---------------------|-------------------|
D|:--------------------|------------------:|
A|:-----0---------7----|----6-------------:|   x8
E|---------------------|-------------------|

G|-------7------7------|-------------------|------------|-----|
D|:--------------------|------------------:|---0--------|-----|
A|:--------------------|----0-------------:|------------|-----|
E|---------------------|-------------------|----------0-|-(0)-|

G|----------------------|--------------------|
D|:---------------------|--------------------|
A|:---------------------|-------7-----7------|
E|----3--2--2--2-----3--|--0----------0------|

G|----------------------|--------------------|
D|----------------------|-------------------:|
A|----------------------|-------------7-----:|
E|----3--2--2--2-----3--|--0----------0------|

G|----------------------|-------------------|-------|
D|----------------------|-------------------|-------|
A|----------------------|---------5----5----|---(5)-|
E|---0---0------2---2---|--(2)--------------|-------|

Теперь 15 тактов - барабаны. И последний кусок --->
G|----------------------|----------------------|--------|
D|----------------------|----------------------|3-------|
A|----5----3----5----1--|----5----8----5-------|4---(5)-|
E|----------------------|----------------------|--------|

G|----------|--------|1210/12/1412/14/1514/15/1715/17/|/19----|
D|4---------|--------|--------------------------------|-------|
A|4-5-3-5-1-|-5-8--5-|--------------------------------|----17-|
E|----------|--------|--------------------------------|-------|

 

 

 
 
 
     
 
 
 

инженеров.netДомашняя страницаНезависимый морской сайтПортал для гитаристовПриколы, юмор, анекдоты

 
обновлен 24.12.2011
в сети с 06.03.2004
 
 
Неофициальный морской сайт Домашняя страница Яндекс цитирования Internet Map Rambler's Top100
Учет посещений на народе

все тексты песен являются собственностью их автора. песени взяты из открытых источников. на сайте размещены с целью ознакомления. при использовании материалов сайта ссылка на сайт обязательна.

по всем вопросам стучитесь в асю или пишите на электропочту

идея, дизайн, редактирование Леха ZaG Загрядский

zagstudio