Аккорды для всех - сайт народных аккордов
 
Аккорды и тексты песен
Guitar Pro табулатуры
Уроки игры на гитаре
Таблица аккордов
Бесплатные программы для музыкантов
Фотографии музыкантов
Видеоклипы
Каталог ссылок
Обратная связь
На главную страницу
 
 
     
 
 

Аккорды, песни, текст, табулатура



ЛЮБЕ - Солдат

 

 

1) -55--3-0--------------

2) ---------1-33-1-------

3) ----------------2-0-2-

 

Обозначения:

Р - рull of

D - вниз

U - вверх

 

 

Бой (идет на протяжении всей песни)

 

Am

D U D D U D D

--0-x--0-0-x--0-x-0-0--0-x-------

--1-x--1-1-x--1-x-1-1--1-x-------

--2-x--2-2-x--2-x-2-2--2-x-------

--2-x--2-2-x--2-x-2-2--2-x-------

--0-x--0-0-x--0-x-0-0--0-x-------

-+--x------x----x--------x-------

 

Соло в начале

 

E---5-5------------------------

B-------8р5--------------------

G------------5-7-7--5р2--0-2---

D------------------------------

A------------------------------

E------------------------------

 

Fill 1

F

E---------------1-

B---------------1-

G------------0--2-

D--------0-2----3-

A--0-2-3--------x-

E---------------x-

 

 

 

|Am

Третьи сутки в пути, ветер, камни, дожди,

|Dm |Am

Всё вперёд и вперёд, рота прёт наша, прёт

|Am

Третьи сутки в пути, слышь, браток, не грусти

|Dm |Am

Ведь приказ есть приказ, знает каждый из нас.

 

Fill 1 |F |Em |Am

Напишите письмецо, нет его дороже для бойцов,

Fill 1 |F |E

Напишите пару слов вы девчата для своих пацанов.

 

Припев (2 раза):

 

|Am

И на рассвете вперёд уходит рота солдат

 

Уходит, чтоб победить и чтобы не умирать

|Dm

Ты дай им там прикурить, товарищ старший сержант

|F |E |Am

Я верю в душу твою солдат, солдат, солдат

 

Третьи сутки в пути, ветер, камни, дожди

На рассвете нам в бой, день начнётся стрельбой.

Третьи сутки в пути, кто бы знал что нас ждёт,

Третьи сутки в пути и рассвет настаёт.

 

Напишите письмецо как живет там наш родимый дом?

Из далёка-далека принесут его мне облака.

 

Припев (2 раза) и потом...

 

E---5-5----------------------|-7-7---------------------

B-------8р5------------------|-----10р7----------------

G------------5-7-7--5р2--0-2-|----------7-9-9--7р4---4-

D----------------------------|---------------------7---

A----------------------------|-------------------------

E----------------------------|-------------------------

 

 

|Нm

Падала земля, с неба падала земля

 

Разрывая крик в небе "Падла ты, война!"

|Em

Плавилась броня, захлебнулся автомат

|F#

Заглянул в глаза ты смерти, гвардии сержант!

 

 

 

 
 
 
     
 
 
 

инженеров.netДомашняя страницаНезависимый морской сайтПортал для гитаристовПриколы, юмор, анекдоты

 
обновлен 24.12.2011
в сети с 06.03.2004
 
 
Неофициальный морской сайт Домашняя страница Яндекс цитирования Internet Map Rambler's Top100
Учет посещений на народе

все тексты песен являются собственностью их автора. песени взяты из открытых источников. на сайте размещены с целью ознакомления. при использовании материалов сайта ссылка на сайт обязательна.

по всем вопросам стучитесь в асю или пишите на электропочту

идея, дизайн, редактирование Леха ZaG Загрядский

zagstudio