Аккорды для всех - сайт народных аккордов
 
Аккорды и тексты песен
Guitar Pro табулатуры
Уроки игры на гитаре
Таблица аккордов
Бесплатные программы для музыкантов
Фотографии музыкантов
Видеоклипы
Каталог ссылок
Обратная связь
На главную страницу
 
 
     
 
 

Аккорды, песни, текст, табулатура



ЛЮБЕ - Главное, что есть ты у меня

 

 

 

Проигрыш

4|------------------5-----------------------------------|

5|-----5-7-7--5-7-7---7-----7-5---5-5-7-5------5-7-5-7--|

6|-5-8--------------------------8----------5-8----------|

 

 

Em                                     Am Am7

Струйкой дым понесла тишина

B7                             Em

Запечалилась в небе луна

C                                            Am

Ну и пусть, мне печаль не страшна

B7                                Em (E7 - перед припевом)

Главное - что есть ты у меня

 

- - - intro - - - --

 

Про себя втихоря помолюсь

Закурю и опять зарекусь

Жаль, что только сейчас понял я

Главное - что есть ты у меня

 

Am                                Em Em7

А ты там-там-там, где смородина растет

C                                D                     G

И береза тонким прутиком песок метет

        Am            B7          Em           C

А ты там, где весна, а я здесь, где зима

Am                        B7           Em

Главноые - что есть ты у меня

 

Фотокарточку нежно храню

Ты смеешься на ней, я кричу

Я вернусь, по другому нелзя

Потому что есть ты у меня

 

Вновь поход и опять мы идем

Ловим воздух как лошади ртом

Ну и пусть впереди западня

Главное - что есть ты у меня

 

А ты там-там-там, где смородина растет

И береза тонким прутиком песок метет

А ты там, где весна, а я здесь, где зима

Главноые - что есть ты у меня...

 

Intro:

Em Am B7

E|--------------------------------------------------------------------------------------------|

B|--------------------------------------------------------------------------------------------|

G|-----------------------------7--------------------------------------------------------------|

D|------5--7---9-9--7--9-9-----9----9--7--5---7-7--5--7--------5-7- ~9~ --7-9-------|

A|---7------------------------------------------------------------7--------------------------|

E|--------------------------------------------------------------------------------------------|

 

 

 

 

 

 
 
 
     
 
 
 

инженеров.netДомашняя страницаНезависимый морской сайтПортал для гитаристовПриколы, юмор, анекдоты

 
обновлен 24.12.2011
в сети с 06.03.2004
 
 
Неофициальный морской сайт Домашняя страница Яндекс цитирования Internet Map Rambler's Top100
Учет посещений на народе

все тексты песен являются собственностью их автора. песени взяты из открытых источников. на сайте размещены с целью ознакомления. при использовании материалов сайта ссылка на сайт обязательна.

по всем вопросам стучитесь в асю или пишите на электропочту

идея, дизайн, редактирование Леха ZaG Загрядский

zagstudio