Аккорды для всех - сайт народных аккордов
 
Аккорды и тексты песен
Guitar Pro табулатуры
Уроки игры на гитаре
Таблица аккордов
Бесплатные программы для музыкантов
Фотографии музыкантов
Видеоклипы
Каталог ссылок
Обратная связь
На главную страницу
 
 
     
 
 

Аккорды, песни, текст, табулатура



Linkin Park - One Step Closer


Intro:
e|----------------------|
b|----------------------|
G|----------------------|
D|----------------------|
A|----5--0--7-----------|
E|-0---------8--7--0--3-|

 Then:

e|-------------------|
b|-------------------|
G|--------9--------5-|
D|--0-0-0-9--------5-|
A|--0-0-0-7-8-7--0-3-|
E|--0-0-0---8-7--0---|

 Break:

G----------|
D-5-5-xx-x-|
A-5-5-xx-x-|
E-5-5-xx-x-|

В припеве не уверен:
                                          На последний
                                             раз
D|-0--0--0-12--10-10-7-7--9-9-5-5--7-7-3333-|33333-|
A|-0--0--0-12--10-10-7-7--9-9-5-5--7-7-3333-|33333-|
E|-0--0--0-12--10-10-7-7--9-9-5-5--7-7-3333-|33333-|

I cannot take this anymore
I'm saying everything I've said before
All these words they make no sense
I find bliss in ignorance
Less I hear the less you'll say
But you'll find that out anyway
Just like before...
Everything you say to me
Takes me one step closer to the edge
And I'm about to break
I need a little room to breathe
Cause I'm one step closer to the edge
And I'm about to break
I find the answers aren't so clear
Wish I could find a way to disappear
All these thoughts they make no sense
I find bliss in ignorance
Nothing seems to go away
Over and over again
shut up when I'm talking to you

 

 

 
 
 
     
 
 
 

инженеров.netДомашняя страницаНезависимый морской сайтПортал для гитаристовПриколы, юмор, анекдоты

 
обновлен 24.12.2011
в сети с 06.03.2004
 
 
Неофициальный морской сайт Домашняя страница Яндекс цитирования Internet Map Rambler's Top100
Учет посещений на народе

все тексты песен являются собственностью их автора. песени взяты из открытых источников. на сайте размещены с целью ознакомления. при использовании материалов сайта ссылка на сайт обязательна.

по всем вопросам стучитесь в асю или пишите на электропочту

идея, дизайн, редактирование Леха ZaG Загрядский

zagstudio