Аккорды для всех - сайт народных аккордов
 
Аккорды и тексты песен
Guitar Pro табулатуры
Уроки игры на гитаре
Таблица аккордов
Бесплатные программы для музыкантов
Фотографии музыкантов
Видеоклипы
Каталог ссылок
Обратная связь
На главную страницу
 
 
     
 
 

Аккорды, песни, текст, табулатура



Led Zeppelin - Battle Of Evermore 


E|--------0---0----------0---0-|---------0---0-----------0---0-|
A|----3---3---3-------3--3---3-|-----3---3---3-------3---3---3-|
D|-7--------------7------------|-7---------------7-------------|
G|-----------------------------|-------------------------------|

G|--------0---0----------0---0-|---------0---0-----------0---0-|
D|.-------3---3-------3--3---3-|-----3---3---3-------3---3---3-|
A|.---7-----------7------------|-7---------------7-------------|
E|-9--9------------------------|(9)----------------------------|

G|--------0---0----------0---0-|---------0---0-----------0---0-|
D|--------3---3-------3--3---3-|-----3---3---3-------3---3---3-|
A|----7-----------7------------|-7---------------7-------------|
E|-8--8------------------------|(8)----------------------------|

G|--------0---0----------0---0-|---------0---0-----------0---0-|
D|--------3---3-------3--3---3-|-----3---3---3-------3---3---3-|
A|----7-----------7------------|-7---------------7-------------|
E|-7--7------------------------|(7)----------------------------|

G|--------0---0----------0---0-|--------0--0----------0---0----|
D|--------3---3-------3--3---3-|-----3--3--3------3---3---3--.-|
A|----7-----------7------------|-7------------7--------------.-|
E|-8--8------------------------|(8)----------------------------|

		Reapeat last 8 measures once
G|-0---0---0---0-------0---0-------|-0---0---0---0---0---0---0-|
D|-3---3---3---3-------0---2-------|-3---3---3---3---3---0---2-|
A|-2---2---2---2-------0---0-------|-2---2---2---2---2---0---0-|
E|---------------------------------|---------------------------|

G|-0---0---0---0---0-------0-------|-0---0---0---0---0---0---0-|
D|-3---3---3---3---3-------2-------|-3---3---3---3---3---0---2-|
A|-2---2---2---2---2-------0-------|-2---2---2---2---2---0---0-|
E|---------------------------------|---------------------------|

Riff A:

G|-2--2--0--2--2--0---3---3-|-2---2---0---2---2---0---0---0----|
D|.0--0--0--0--0--0---2---0-|-0---0---0---0---0---0---3---0--.-|
A|.-------------------------|-------------------------2------.-|
E|--------------------------|----------------------------------|

			Repeat Riff A 3 more times

Riff B:

G|-----5--(5)--R-------5--(5)--|-R---3---2---0---2---3---2---0-|
D|-----0--(0)--R-------0--(0)--|-R-------0---------------0-----|
A|-----4--(4)--R-------4--(4)--|-R-------0---------------0-----|
E|-----------------------------|-------------------------------|

G|-----5--(5)--R-------5--(5)--|-R---3---2---0-----------0-----|
D|-----0--(0)--R-------0--(0)--|-R-------0-------3---2-------0-|
A|-----4--(4)--R-------4--(4)--|-R-------0---------------------|
E|-----------------------------|-------------------------------|
							end of Riff B

Variation on Riff A

G|-2--2--0--2--2--0---3---3-|-2---2---0---2---2---0---0---0----|
D|.0--0--0--0--0--0---2---2-|-0---0---0---0---0---0---3---3--.-|
A|.-------------------------|-------------------------2---2--.-|
E|--------------------------|----------------------------------|
	   	       Repeat above riff once

		          Play Riff B once

			  Play Riff A twice

G|---------5--(5)--R-------5--(5)--|-R---3---2---0---3---2---0-|
D|---------0--(0)--R-------0--(0)--|-R---0---0---0---0---0---0-|
A|---------4--(4)--R-------4--(4)--|-R-------------------------|
E|---------------------------------|---------------------------|

G|--0-------0---2---0-------0--|(0)--5---3---2---0---0---0---0-|
D|----2/3-------3-------3------|-----------------3---3---3---0-|
A|----3/4---------------4------|-------------------------------|
E|-----------------------------|-------------------------------|

			  Play Riff A twice

Riff C
G|-0---0---0---0---0---0---0---0---|-5---5---5---5--(5)--5---5-|
D|-3---3---3---3---3---3---3---3---|-0---0---0---0--(0)--0---0-|
A|-5---5---5---5---5---5---5---5---|-4---4---4---4--(4)--4---4-|
E|---------------------------------|---------------------------|

G|-0--0--0---0--(0)--0---0---0-|-0---5---5---5--(5)--5---5---0-|
D|-3--3--3---3--(3)--3---3---3-|-3---0---0---0--(0)--0---0---3-|
A|-5--5--5---5--(5)--5---5---5-|-5---4---4---4--(4)--4---4---5-|
E|-----------------------------|-------------------------------|

G|-0--3-(3)--3--(3)--3---3---3-|-3---0---0---0--(0)--0---0---0-|
D|-3--2-(2)--2--(2)--2---2---2-|-2---3---3---3--(3)--3---3---3-|
A|-5--3-(3)--3--(3)--3---3---3-|-3---2---2---2--(2)--2---2---2-|
E|-----------------------------|-------------------------------|

G|-3--3--3---3---3---3---3---3-|-3---0---0---0--(0)--0---0---0-|
D|-2--2--2---2---2---2---2---2-|-2---3---3---3--(3)--3---3---3-|
A|-3--3--3---3---3---3---3---3-|-3---2---2---2--(2)--2---2---2-|
E|-----------------------------|-------------------------------|
						end of Riff C

           play Riff A twice
G|-----5--(5)--R-------5---R---|-5---3---2---0---2---3---3---5-|
D|-----0--(0)--R-------0---R---|-0---------------0-------------|
A|-----4--(4)--R-------4---R---|-------------------------------|
E|-----------------------------|-------------------------------|

G|-----5--(5)--R-------5--(5)--|-R---3---2---0-------0---------|
D|-----0--(0)--R-------0--(0)--|-R---------------3-------3---0-|
A|-----4--(4)--R-------4--(4)--|-R-----------------------------|
E|-----------------------------|-------------------------------|

			play Riff A twice

G|---------5--(5)--R-------5--(5)--|-R---3---2---0-------0-----|
D|---------0--(0)--R-------0--(0)--|-R---------------3-------0-|
A|---------4--(4)--R-------4--(4)--|-R-------------------------|
E|---------------------------------|---------------------------|

G|-----5--(5)--R---5---5--(5)--|-R---3---2---0-------0---------|
D|-----0--(0)--R---0---0--(0)--|-R-------------2/3-------0-----|
A|-----4--(4)--R---4---4--(4)--|-R---------------------------5-|
E|-----------------------------|-------------------------------|

			play Riff A twice

G|-----5--(5)--R---5---5---R---|-5---3---2---0---------------5-|
D|-----0--(0)--R---0---0---R---|-----------------3---2---0-----|
A|-----4--(4)--R---4---4---R---|-------------------------------|
E|-----------------------------|-------------------------------|

G|-5---3---3---2---2---0-----0-|-0-------2-1/2---0-------5---5-|
D|------------------------3----|---2/3---------------3---------|
A|-----------------------------|-------------------------------|
E|-----------------------------|-------------------------------|

			play Riff A twice

			play Riff C once

			play Riff A 4 times

G|-----5--(5)--R-------5--(5)--|-R---3---2---0---2---3---5---5-|
D|-----0--(0)--R-------0--(0)--|-R-----------------------------|
A|-----4--(4)--R-------4--(4)--|-R-----------------------------|
E|-----------------------------|-------------------------------|

G|-----5--(5)--R-------5--(5)--|-R---3---2---0-------0---0---0-|
D|-----0--(0)--R-------0--(0)--|-R---------------3-------3---3-|
A|-----4--(4)--R-------4--(4)--|-R-----------------------------|
E|-----------------------------|-------------------------------|

			play Riff A twice

G|---------5--(5)--R-------5--(5)--|-R---3---2---0-------0---0-|
D|---------0--(0)--R-------0--(0)--|-R---------------3-------3-|
A|---------4--(4)--R-------4  (4)--|-R-------------------------|
E|---------------------------------|---------------------------|

G|-----5--(5)--R---5---5--(5)--|-R---3---2---0-------0---------|
D|-----0--(0)--R---0---0--(0)--|-R---------------3-------3---0-|
A|-----4--(4)--R---4---4--(4)--|-R-----------------------------|
E|-----------------------------|-------------------------------|

			play Riff A twice

G|-----5--(5)--R---5---5---R---|-5---3---2---0---------------5-|
D|-----0--(0)--R---0---0---R---|-----------------3---2---0-----|
A|-----4--(4)--R---4---4---R---|-------------------------------|
E|-----------------------------|-------------------------------|

G|-5---3---3---2---2---0--0----|---------2---0---------------5-|
D|---------------------------3-|-2---0-----------3---2---0-----|
A|-----------------------------|-------------------------------|
E|-----------------------------|-------------------------------|

			play Riff A twice

			play Riff C once

G|--------0---0----------0---0-|---------0---0-----------0---0-|
D|----3---3---3-------3--3---3-|-----3---3---3-------3---3---3-|
A|-7--------------7------------|-7---------------7-------------|
E|-----------------------------|-------------------------------|

G|--------0---0----------0---0-|---------0---0-----------0---0-|
D|----3---3---3-------3--3---3-|-----3---3---3-------3---3---3-|
A|-7--------------7------------|-7---------------7-------------|
E|-9---------------------------|(9)----------------------------|

G|--------0---0----------0---0-|---------0---0-----------0---0-|
D|----3---3---3-------3--3---3-|-----3---3---3-------3---3---3-|
A|-7--------------7------------|-7---------------7-------------|
E|-7---------------------------|(7)----------------------------|

G|--------0---0----------0---0-|---------0---0-----------0---0-|
D|----3---3---3-------3--3---3-|-----3---3---3-------3---3---3-|
A|-7--------------7------------|-7---------------7-------------|
E|-8---------------------------|(8)----------------------------|

G|--------0---0----------0---0-|---------0---0-----------0---0-|
D|----3---3---3-------3--3---3-|-----3---3---3-------3---3---3-|
A|-7--------------7------------|-7---------------7-------------|
E|-9---------------------------|(9)----------------------------|

G|--------0---0----------0---0-|---------0---0-----------0---0-|
D|----3---3---3-------3--3---3-|-----3---3---3-------3---3---3-|
A|-7--------------7------------|-7---------------7-------------|
E|-8---------------------------|(8)----------------------------|

G|--------0---0----------0---0-|---------0---0-----------0---0-|
D|----3---3---3-------3--3---3-|-----3---3---3-------3---3---3-|
A|-7--------------7------------|-7---------------7-------------|
E|-7---------------------------|(7)----------------------------|

G|--------0---0----------0---0-|---------0---0-----------0---0-|
D|----3---3---3-------3--3---3-|-----3---3---3-------3---3---3-|
A|-7--------------7------------|-7---------------7-------------|
E|-8---------------------------|(8)----------------------------|

G|-------0---0---0---0---0---0-|-0---0---0---0---0---0---0---0-|
D|-------2---2---2---2---2---2-|-2---5---5---5---5---3---3---2-|
A|-----------------------------|-------------------------------|
E|-----------------------------|-------------------------------|

G|-0--0---0---0---0---0--0---0-|-0---0---0---0---0---0---0---0-|
D|-2--2---2---2---2---5--5---3-|-3---2---2---X---X---2---2---5-|
A|-----------------------------|-------------5---5-------------|
E|-----------------------------|-------------0---0-------------|

G|-0--0---0---0---0---0--0---0-|-0---0---0---0---0---0---0---0-|
D|-5--3---3---2---2---X--X---5-|-5---3---3---2---2---X---X---5-|
A|--------------------5--5-----|---------------------5---5-----|
E|--------------------0--0-----|---------------------0---0-----|

G|-0--0---0---0---0---0--0---0-|-0---0---0---5---2---0-------0-|
D|-5--3---3---2---2---X--X---2-|-2---3---2---0---0---0---3-----|
A|--------------------5--5-----|-------------------------------|
E|--------------------0--0-----|-------------------------------|

Riff D:

G|-2--2--0--2--2--0---3---3-|-2---2---0---2---2---0---0---0----|
D|.0--0--0--0--0--0---2---0-|-0---0---0---0---0---0---3---0--.-|
A|.0------------------0-----|-0-----------------------0------.-|
E|-0------------------0-----|-0-----------------------0--------|

			Repeat Riff D once

G|-R--5--5---5---5---5---5---5-|-5---3---2---0-------0-------5-|
D|-R--0--0---0---0---0---0---0-|-----------------3-------2-----|
A|-R--4--4---4---4---4---4---4-|-------------------------------|
E|-----------------------------|-------------------------------|

G|-3--2--0-----------0---2---0-|-----0---2---5--(5)--0-------0-|
D|-----------3---3-------------|-3-----------------------3-----|
A|-----------------------------|-------------------------------|
E|-----------------------------|-------------------------------|

			play Riff D twice

G|-R--5--5---5---5--(5)--5---5-|-5---3---2---0--(0)--5---3---2-|
D|-R--0--0---0---0--(0)--0---0-|-0-----------------------------|
A|-R--4--4---4---4--(4)--4---4-|-------------------------------|
E|-----------------------------|-------------------------------|

G|-------2---0-------2---0-----|-5-----------2--(2)----------0-|
D|-3-------------3-----------3-|-0-----------0--(0)--3--(3)----|
A|-----------------------------|-4-------------------2--(2)----|
E|-----------------------------|-------------------------------|

			play Riff D twice

G|-2---R---2--(2)--3---R---3---|(3)--2---R---2--(2)------------|
D|-3---R---3--(3)--2---R---2---|(2)--0---R---0--(0)--3---R---3-|
A|-----------------------------|---------------------2---R---2-|
E|-----------------------------|-------------------------------|

G|-----2---R---2--(2)--3--R--3-|(3)--2---R---2--(2)------------|
D|(3)--3---R---3--(3)--2--R--2-|(2)--0---R---0--(0)--3---R---3-|
A|(2)--------------------------|---------------------2---R---2-|
E|-----------------------------|-------------------------------|

G|-2---2-------2---3---3--2-|-2---2---------------0-------2----|
D|.0---0-------0---2---2--0-|-0---0-------3--(3)--3-------0--.-|
A|.-------------------------|-------------2--(2)--2----------.-|
E|--------------------------|----------------------------------|

			repeat 3 times

G|----0-0-2---2-------0-0-3---3-|-0-0-2---2--------------------|
D|.---0-0-0---0-------0-0-2---2-|-0-0-0---0-------3--(3)--3--.-|
A|.-----------------------------|-----------------2--(2)--2--.-|
E|------------------------------|------------------------------|

			repeat 3 times

G|--2--(2)--2---2---2---0---0--|-----5-------0---0---0--(0)--0-|
D|--0--(0)--0---0---0---3---3--|-----0-------3---2---0--(0)--0-|
A|----------------------2---2--|-------------------------------|
E|-----------------------------|-------------------------------|

G|-----0---0---0---------------|-2---2---R---2---R---2---R---0-|
D|-----3---2---0---------------|-0---0---R---0---R---0---R---0-|
A|-----------------------------|-------------------------------|
E|-----------------------------|-------------------------------|

G|(0)--3---R---0--(0)--5---R---0---|(0)--5--|
D|(0)--2---R---0--(0)--0---R---0---|(0)--0--|  Fade completely
A|-------------0--(0)--4---R---0---|(0)--4--|
E|---------------------------------|--------|

 

 

 
 
 
     
 
 
 

инженеров.netДомашняя страницаНезависимый морской сайтПортал для гитаристовПриколы, юмор, анекдоты

 
обновлен 24.12.2011
в сети с 06.03.2004
 
 
Неофициальный морской сайт Домашняя страница Яндекс цитирования Internet Map Rambler's Top100
Учет посещений на народе

все тексты песен являются собственностью их автора. песени взяты из открытых источников. на сайте размещены с целью ознакомления. при использовании материалов сайта ссылка на сайт обязательна.

по всем вопросам стучитесь в асю или пишите на электропочту

идея, дизайн, редактирование Леха ZaG Загрядский

zagstudio