Аккорды для всех - сайт народных аккордов
 
Аккорды и тексты песен
Guitar Pro табулатуры
Уроки игры на гитаре
Таблица аккордов
Бесплатные программы для музыкантов
Фотографии музыкантов
Видеоклипы
Каталог ссылок
Обратная связь
На главную страницу
 
 
     
 
 

Аккорды, песни, текст, табулатура



Лаэртский Александр - Горнолыжники (2 вариант)


Hm			    G
     Горнолыжники - славные парни
     Em			 F#
     На санках по горкам ездиют
     Со своими подругами храбрыми
     Спортразрядницами удалыми
     А случается - расшибаются
     Их подруги о кочки всякие
     И грустят тогда конькобежцы
     И рыдают шоферы автобусов
     Только панки с чубами рыжими
     На квартирах, травкой пропыханных
     Отдыхают в объятиях ласковых
     Неподмытых подруг психических

     Космонавты летают в космос
     "Апполоны" да Лайки всякие
     А в горячих точках планеты
     По татарски крича непотребщину
     Меж собою дерутся чукчи
     И смущают Европу этим
     А Европа торчит над нами
     А мы торчим друг над другом
     И только Союз Композиторов
     И только Союз Писателей
     И только Союз Художников
     Святой и нетронутый падалью

    Hm                         G
E||--------------2-----------|--------------3-----------|
B||--------3-----------3-----|--------3-----------3-----|
G||-----4-----4-----4-----4--|-----4-----4-----4-----4--|
D||--------------------------|--------------------------|
A||--2-----------------------|--5-----------------------|
E||--------------------------|--------------------------|


  Em                         F#
--------------0-----------|--------------2-----------|
--------0-----------0-----|--------2-----------2-----|
-----0-----0-----0-----0--|-----3-----3-----3-----3--|
--------------------------|--------------------------|
--2-----------------------|--4-----------------------|
--------------------------|--------------------------|

Соло в начале

E||---------------0--2--3--|--2----0-----|-----------|
B||------0--2--3-----------|-------------|--3----2---|
G||------------------------|----------0--|----------0|
D||------------------------|-------------|-----------|
A||------------------------|-------------|-----------|
E||------------------------|-------------|-----------|



---------------------|---------0--2--3--|--2----0----|
-------2-------------|0--2--3-----------|----------0-|
--3------------------|------------------|------------|
----------4----------|------------------|------------|
---------------------|------------------|------------|
---------------------|------------------|------------|



-----------------------|-------------------|
--2----2--3--2---------|--0----------------|
------------------3----|-------------------|
-----------------------|-------------------|
-----------------------|-------------------|
-----------------------|-------------------|

 

 

 
 
 
     
 
 
 

инженеров.netДомашняя страницаНезависимый морской сайтПортал для гитаристовПриколы, юмор, анекдоты

 
обновлен 24.12.2011
в сети с 06.03.2004
 
 
Неофициальный морской сайт Домашняя страница Яндекс цитирования Internet Map Rambler's Top100
Учет посещений на народе

все тексты песен являются собственностью их автора. песени взяты из открытых источников. на сайте размещены с целью ознакомления. при использовании материалов сайта ссылка на сайт обязательна.

по всем вопросам стучитесь в асю или пишите на электропочту

идея, дизайн, редактирование Леха ZaG Загрядский

zagstudio