Аккорды для всех - сайт народных аккордов
 
Аккорды и тексты песен
Guitar Pro табулатуры
Уроки игры на гитаре
Таблица аккордов
Бесплатные программы для музыкантов
Фотографии музыкантов
Видеоклипы
Каталог ссылок
Обратная связь
На главную страницу
 
 
     
 
 

Аккорды, песни, текст, табулатура



Крупнов Анатолий - Аве Цезарь (2 вариант)


riff1

E|-------------------------------------------------------------|
B|-------------------------------------------------------------|
G|-------------------------------------------------------------|
D|---2---2---------------------2---2---------------------------|
A|---2---2---------------------2---2---------------------------|
E|---0---0---5-3-2-3--5-3-2-3--0---0---5-3-2-3--5-3-2-3--------|

E|-------------------------------------------------------------|
B|-------------------------------------------------------------|
G|-------------------------------------------------------------|
D|---2---2---------------------2---2------------2-2------------|
A|---2---2---------------------2---2------------2-2------------|
E|---0---0---5-3-2-3--5-3-2-3--0---0---5-3-2-3--0-0------------|

riff2

E|-------------------------------------------------------------|
B|-------------------------------------------------------------|
G|-------------------------------------------------------------|
D|---2---------4---------5---------4---------------------------|
A|---2---------4---------5---------4---------------------------|
E|---0--0-0-0--2--0-0-0--3--0-0-0--2--0-0-0--------------------|

E|-------------------------------------------------------------|
B|-------------------------------------------------------------|
G|-------------------------------------------------------------|
D|---2---------4---------5---------7---------------------------|
A|---2---------4---------5---------7---------------------------|
E|---0--0-0-0--2--0-0-0--3--0-0-0--5--0-0-0--------------------|

E|-------------------------------------------------------------|
B|-------------------------------------------------------------|
G|---2---------4---------5---------4---------------------------|
D|---2---------4---------5---------4---------------------------|
A|---0--0-0-0--2--0-0-0--3--0-0-0--2--0-0-0--------------------|
E|-------------------------------------------------------------|

E|-------------------------------------------------------------|
B|-------------------------------------------------------------|
G|---2---------4---------5---------7---------------------------|
D|---2---------4---------5---------7---------------------------|
A|---0--0-0-0--2--0-0-0--3--0-0-0--5--0-0-0--------------------|
E|-------------------------------------------------------------|

riff3

E|--------------------------------------------------|
B|--------------------------------------------------|
G|--------------------------------------------------|
D|---2---------4---------9---7---5---4--------------|  -> 2 раза
A|---2---------4---------7---5---3---2--------------|
E|---0--0-0-0--2--0-0-0----0---0---0----------------|

E|---------------------|                      E|---------------|
B|---------------------|                      B|---------------|
G|---------------------|                      G|---------------|
D|--2-------2-------45-| <-3 раза, а затем -> D|--2--2--2-2--2-|
A|--2-------2-------45-|                      A|--2--2--2-2--2-|
E|--0--0-0--0--0-0--23-|                      E|--0--0--0-0--0-|


куплет (bass)
G|-------------------------------------------------------------|
D|------------------------------0---2---3---2---0---2---3---5--|
A|0--2---3---2---0---2---3---5----0---0---0---0---0---0---0---0|
E|-0---0---0---0---0---0---0---0-------------------------------|

          Аве Цезарь, друг сердечный
          Ну заходи давно заждались
          Нет не поздно, да конечно
          Не развязывай сандалей

          Брось ты эту табуретку
          Ей!!!принесите гостю кресло
          Он у нас бывает редко
          Так пускай понежит чресло


E|-------------------------------------------------------------|
B|-------------------------------------------------------------|
G|-------------------------------------------------------------|
E|---2-------4-------5-----4-----------------------------------|
A|---2-------4-------5-----4-----------------------------------|
E|---0-------2-------3-----2-----------------------------------|
     Тут у нас такие гости

E|-------------------------------------------------------------|
B|-------------------------------------------------------------|
G|-------------------------------------------------------------|
D|----2-----4-----4-----7--------------------------------------|
A|----2-----4-----5-----7--------------------------------------|
E|----0-----2-----3-----5--------------------------------------|
       Укрошение компаний


E|-------------------------------------------------------------|
B|-------------------------------------------------------------|
G|----2--------4----5----4-------------------------------------|
D|----2--------4----5----4-------------------------------------|
A|----0--------2----3----2-------------------------------------|
E|-------------------------------------------------------------|
    Что, не спится на погосте


E|-------------------------------------------------------------|
B|-------------------------------------------------------------|
G|---2-------4----3----7---------------------------------------|
D|---2-------4----3----7---------------------------------------|
A|---0-------2----5----5---------------------------------------|
E|-------------------------------------------------------------|
      Или плохо закопали

E|-------------------------------------------------------------|
B|-------------------------------------------------------------|
G|-------------------------------------------------------------|
D|-----2-------4------------5-------4--------------------------|
A|-----2-------4------------5-------4--------------------------|
E|--0--0--0-0--2--2-2-2--3--3--3-3--2--2-2-2-------------------|
     Или совесть беспокоит

E|-------------------------------------------------------------|
B|-------------------------------------------------------------|
G|-------------------------------------------------------------|
D|-----2-------4------------5-------7--------------------------|
A|-----2-------4------------5-------7--------------------------|
E|--0--0--0-0--2--2-2-2--3--3--3-3--5--5-5-5-------------------|
       Иль соседи кровопийцы

E|-------------------------------------------------------------|
B|-------------------------------------------------------------|
G|-----2-------4------------5-------4--------------------------|
D|-----2-------4------------5-------4--------------------------|
A|--0--0--0-0--2--2-2-2--3--3--3-3--2--2-2-2-------------------|
E|-------------------------------------------------------------|
       Или что-нибудь такое
E|-------------------------------------------------------------|
B|-------------------------------------------------------------|
G|-----2-------4------------5-------7--------------------------|
D|-----2-------4------------5-------7--------------------------|
A|--0--0--0-0--2--2-2-2--3--3--3-3--5--5-5-5-------------------|
E|-------------------------------------------------------------|
       Что забыли летописцы

 

 

 
 
 
     
 
 
 

инженеров.netДомашняя страницаНезависимый морской сайтПортал для гитаристовПриколы, юмор, анекдоты

 
обновлен 24.12.2011
в сети с 06.03.2004
 
 
Неофициальный морской сайт Домашняя страница Яндекс цитирования Internet Map Rambler's Top100
Учет посещений на народе

все тексты песен являются собственностью их автора. песени взяты из открытых источников. на сайте размещены с целью ознакомления. при использовании материалов сайта ссылка на сайт обязательна.

по всем вопросам стучитесь в асю или пишите на электропочту

идея, дизайн, редактирование Леха ZaG Загрядский

zagstudio