Аккорды для всех - сайт народных аккордов
 
Аккорды и тексты песен
Guitar Pro табулатуры
Уроки игры на гитаре
Таблица аккордов
Бесплатные программы для музыкантов
Фотографии музыкантов
Видеоклипы
Каталог ссылок
Обратная связь
На главную страницу
 
 
     
 
 

Аккорды, песни, текст, табулатура



Крематорий - Мусорный ветер (3 вариант)


Em                      D
E|--7-----0-----0-2-3-7-----5---2-----2-5-----5-----|
B|------0---0-------------0---------3-------3---3---|
G|----0-------0---------0-----2---2-------2-------2-|
D|--------------------------0-----------0-----------|
A|--------------------------------------------------|
E|--0-----------0-----------------------------------|

    C                       H7
E|--3-----0---------0-3-----2-----------2-----2-----|
B|------1---1---1-3-----1-------4-4-0-4-----0---0---|
G|----0-------0-----------0---2-----------2-------2-|
D|--------------------------------------------------|
A|--3-----------3-----------2-----------2-----------|
E|--------------------------------------------------|

    Em                      D
E|--7-----0-----0-2-3-7-----5---2-----2-5-----8-7-5-|
B|--8---8---0-----4-5-8---8---------3-------3-------|
G|----0-------0---------0-----2---2-------2---------|
D|--------------------------0-----------0-----------|
A|--------------------------------------------------|
E|--0-----------0-----------------------------------|

    C                       H7
E|--3-----0---------0-3-----2-----------2-----2-3-2-|
B|------1---1---1-3-----1-------4-4-0-4-----0-------|
G|----0-------0-----------0---2-----------2---------|
D|--------------------------------------------------|
A|--3-----------3-----------2-----------2-----------|
E|--------------------------------------------------|

    Em
E|--0-----0-----------------|
B|------0---0---------------|
G|----0-------0-------------|
D|--------------------------|
A|--------------2-3-2-0-----|
E|--0-------------------3-2-|

  Em              C         H7
 Мусорный ветер, дым из трубы,
   Em            C       H7
 Плач природы, смех сатаны,
     C               F#
 А все от того, что мы
    C              F#
 Любили ловить ветра
        H7       Em
 И разбрасывать камни.

 [Басовый ход]
A|-2-3-2-0-----|
E|---------3-2-| (возможны варианты)

 Песочный город, построенный мной,
 Давным-давно смыт волной.
 Мой взгляд похож на твой:
 В нем нет ничего, кроме снов
 И забытого счастья.

Припев:
E|-0-2-3-| - указательный   небольшой заход в припев :)
B|-------|
G|-------|
D|-------|
A|-------|
E|-0-2-3-|  - большой палец

  Am7          D
 Дым на небе, дым на земле,
   G       Hm    Em
 Вместо людей машины.
  Am7             D
 Мертвые рыбы в усохшей реке,
     G       Hm     Em
 Зловонный зной пустыни.
  Am                        F#
 Моя смерть разрубит цепи сна,
  H7              Em
 Когда мы будем вместе.

 Проигрыш

 Ты умна, а я - идиот,
 Неважно, кто из нас раздает,
 Даже если мне повезет,
 И в моей руке будет туз - то в твоей будет джокер.
 [Басовый ход]
 Так не бойся милая - ляг на снег,
 Слепой художник напишет портрет,
 Воспоет твои формы поэт,
 И станет звездою актер бродячего цирка.
 Припев

Проигрыш : #3 #4 #5 + флажолет на 12 ладу

 

 

 
 
 
     
 
 
 

инженеров.netДомашняя страницаНезависимый морской сайтПортал для гитаристовПриколы, юмор, анекдоты

 
обновлен 24.12.2011
в сети с 06.03.2004
 
 
Неофициальный морской сайт Домашняя страница Яндекс цитирования Internet Map Rambler's Top100
Учет посещений на народе

все тексты песен являются собственностью их автора. песени взяты из открытых источников. на сайте размещены с целью ознакомления. при использовании материалов сайта ссылка на сайт обязательна.

по всем вопросам стучитесь в асю или пишите на электропочту

идея, дизайн, редактирование Леха ZaG Загрядский

zagstudio