Аккорды для всех - сайт народных аккордов
 
Аккорды и тексты песен
Guitar Pro табулатуры
Уроки игры на гитаре
Таблица аккордов
Бесплатные программы для музыкантов
Фотографии музыкантов
Видеоклипы
Каталог ссылок
Обратная связь
На главную страницу
 
 
     
 
 

Аккорды, песни, текст, табулатура



Король и Шут - Лесник (3 вариант)


Вступление:

Riff1

Две гитары, одна без дисторшена аккордами,
другая приглушенное соло с дисторшеном

   Am                      F
E|-------------------------------------------------|
B|-------------------------------------------------|
G|-------------------------------------------------|
D|-------------------------------55-33-------55-33-|
A|-------55-77-------55-77-------------------------|
E|-55-88-------55-88-------55-88-------55-88-------|

   Dm                      G
E|-------------------------------------------------|
B|-------------------------------------------------|
G|-------------------------------------------------|
D|-55----------55----------------------------------|
A|----88-77-55----88-77-55----------55----------55-|
E|-------------------------33-77-88----33-77-88----|

Riff2

Затем первая гитара - аккорды с дисторшеном,
вторая - соло (без заглушки), в концертном
исполнении партия второй гитары - это партия скрипки Маши.

   Am                 F
E|-------------------------------------|
B|-------------------------------------|
G|-------------------------------------|
D|-----------------------5-3-------5-3-|
A|-----5-7-------5-7-------------------|
E|-5-8-----5-5-8------5-8-----5-5-8----|

   Dm                 G
E|--------------------------------------|
B|--------------------------------------|
G|--------------------------------------|
D|-5-------5-5--------------------------|
A|---8-7-5-----8-7-5--------5---------5-|
E|--------------------3-7-8---3-3-7-8---|

Затем идет куплет, гитара играет аккорды без дисторшена,
аккорды глушатся попеременным прижатием/отжатием струн :

Куплет1

   Am
Замученный дорогой,
   F         Dm
Я выбился из сил,
    Am
И в доме лесника я
    F        Dm
Ночлега попросил,
    Am
С улыбкой добродушной
    F           Dm
Старик меня впустил
      Am
И с счастьем дружелюбным
    F         Dm
На ужин пригласил

Хэй !

Припев: (riff2)

Будь как дома, путник,
Я ни в чем не откажу,
Я ни в чем не откажу,
Я ни в чем не откажу,
Множество историй
Коль желаешь, расскажу,
Коль желаешь, расскажу,
Коль желаешь, расскажу

Куплет2

На улице темнело,
Сидел я за столом,
Лесник сидел напротив,
Болтал о том, о сем,
Что нет среди животных
У старика врагов,
Что нравится ему
Подкармливать волков

Хэй !

Припев

Куплет3

И волки среди ночи
Завыли под окном,
Старик заулыбался
И вдруг покинул дом,
Но вскоре возвратился
С ружьем наперевес:
"Друзья хотят покушать,
Пойдем, приятель, в лес !"

Припев

 

 

 
 
 
     
 
 
 

инженеров.netДомашняя страницаНезависимый морской сайтПортал для гитаристовПриколы, юмор, анекдоты

 
обновлен 24.12.2011
в сети с 06.03.2004
 
 
Неофициальный морской сайт Домашняя страница Яндекс цитирования Internet Map Rambler's Top100
Учет посещений на народе

все тексты песен являются собственностью их автора. песени взяты из открытых источников. на сайте размещены с целью ознакомления. при использовании материалов сайта ссылка на сайт обязательна.

по всем вопросам стучитесь в асю или пишите на электропочту

идея, дизайн, редактирование Леха ZaG Загрядский

zagstudio