-
 
Guitar Pro
 
 
     
 
 

, , ,



-

 

 

.1E|---------------------------------|---------------------------------|

H|---------------------------------|---------------------------------|

G|-----0-------0-------0-------0---|-----0-------0-------0-------0---|

D|---2---2---2---2---2---2---4---4-|---2---2---2---2---2---2---4---4-|

A|-2-------2-------3-------5-------|-2-------2-------3-------5-------|

E|---------------------------------|---------------------------------|

| | |

E|---------------------------------|---------------------------------|

H|---------------------------------|-----------------7---------------|

G|-4---------------5---------------|-4-----------------------7-------|

D|-------------------------7-------|---------------------------------|

A|---------------------------------|---------------------------------|

E|---------------------------------|---------------------------------|

.1E|---------------------------------|---------------------------------|

H|---------------------------------|---------------------------------|

G|-----0-------0-------0-------0---|-----0-------0-------0-------0---|

D|---2---2---2---2---2---2---4---4-|---2---2---2---2---2---2---4---4-|

A|-2-------2-------3-------5-------|-2-------2-------3-------5-------|

E|---------------------------------|---------------------------------|

| | |

E|---------------------------------|---------------------------------|

H|---------------------------------|---------------------------------|

G|-4---------------5---------------|-4-------------------------------|

D|--------------------------7------|-----------------5-------4-------|

A|---------------------------------|---------------------------------|

E|---------------------------------|---------------------------------|

.

E|-------------------------------------------------------------------|

H|-------------------------------------------------------------------|

G|--4--------------5----4-2----------4--2--0-2------------4----------|

D|---------5--2--------------------------------2-0---2---------------|

A|-------------------------------------------------------------------|

E|- , o --------|

| | |

.1E|-Em------0-------Am------0-------|-D-----2-3-2-----Em------0-------|

H|-------0---0-----------1---1-----|-----3-------3---------0---0-----|

G|-----0-------0-------2-------2---|---2-----------2-----0-------0---|

D|---2-----------2---2-----------2-|-0-----------------2-----------2-|

A|-----------------0---------------|---------------------------------|

E|-0-------------------------------|-----------------0---------------|

| | |

E|---------------------------------|---------------------------------|

H|---------------------------------|---------------------------------|

G|---------------------------------|---------------------------------|

D|-2-------------------------------|---------------------------------|

A|---------------------------------|---------------------------------|

E|---------------------------------|---------------------------------|

E|-------------------------------------------------------------------|

H|-------------------------------------------------------------------|

G|---------4--------5----4--2----------------------------------------|

D|--2---------5--2------------5------4-5---4------5--4---------------|

A|-------------------------------------------------------------------|

E|- , a ------------|

| | |

.1E|-Em------0-------Am------0-------|-F#--------2-----H-------2-------|

H|-------0---0-----------1---1-----|---------2---2-----4---4---4-----|

G|-----0-------0-------2-------2---|---3---3-------3-4---4-------4---|

D|---2-----------2---2-----------2-|-4---4-------------------------4-|

A|-----------------0---------------|---------------------------------|

E|-0-------------------------------|---------------------------------|

E|-------------------------------------------------------------------|

H|-------------------------------------------------------------------|

G|--4--------------5-----4--2-------4-2-0---2-------------4----------|

D|-----------5--2------------------------------2--0--2---------------|

A|-------------------------------------------------------------------|

E| ---------|

| | |

.1E|-Em------0-------Am------0-------|-D-----2-3-2-----Em------0-------|

H|-------0---0-----------1---1-----|-----3-------3---------0---0-----|

G|-----0-------0-------2-------2---|---2-----------2-----0-------0---|

D|---2-----------2---2-----------2-|-0-----------------2-----------2-|

A|-----------------0---------------|---------------------------------|

E|-0-------------------------------|-----------------0---------------|

E|-------------------------------------------------------------------|

H|-------------------------------------------------------------------|

G|---------4-----------5---4--2--------------------------------------|

D|---2---------5---2------------5----4--5-----4--5-4-----------------|

A|-------------------------------------------------------------------|

E| , . --------------|

| | |

.1E|-Em------0-------Am------0-------|-F#--------2-----H-------2-------|

H|-------0---0-----------1---1-----|---------2---2-----4---4---------|

G|-----0-------0-------2-------2---|---3---3-------3-4---4-----------|

D|---2-----------2---2-----------2-|-4---4---------------------------|

A|-----------------0---------------|---------------------------------|

E|-0-------------------------------|---------------------------------|

( :

d-

u - .

(). , .

E|-------------------------------------------------------------------|

H|--3----------------------------------------------------------------|

G|-------------5---4-------------------------5---4-2---4--5----------|

D|--------------------2----------------------------------------------|

A|-------------------------------------------------------------------|

E|- - , ---------|

| | |

.1E|-0-E7--0-0-----0-0-0-0---0---0-0-|-0-Am--0-0-----0-0-0-0---0---0-0-|

H|-3-----3-3-----3-3-3-3---3---3-3-|-1-----1-1-----1-1-1-1---1---1-1-|

G|-1-----1-1-----1-1-1-1---1---1-1-|-2-----2-2-----2-2-2-2---2---2-2-|

D|-2-----2-2-----2-2-2-2---2---2-2-|-2-----2-2-----2-2-2-2---2---2-2-|

A|-2-----2-2-----2-2-2-2---2---2-2-|-0-----0-0-----0-0-0-0---0---0-0-|

E|-0-----0-0-----0-0-0-0---0---0-0-|-0-----0-0-----0-0-0-0---0---0-0-|

| d u d u d u d d d u | d u d u d u d d d u |

G|---------------------9-10-9-------|---------------------------------|

D|-----------------6-9-------9-----|-7---------------7---------------|

A|-5-----------7-9-------------7-7-|---------------7---7---------0-2-|

E|---------------------------------|---------------------5-----------|

E|-------------------------------------------------------------------|

H|-------------------------------------------------------------------|

G|------5--5--5---4---2--------------4--------2----------------------|

D|-------------------------5----4--5-----------------4--4------------|

A|-------------------------------------------------------------------|

E|--- - . ----------|

| | |

.1E|-3-C---3-3-----3-3-3-3---3---3-3-|-2-Hm--2-2-----2-2-2-2---2-------|

H|-5-----5-5-----5-5-5-5---5---5-5-|-3-----3-3-----3-3-3-3---3-------|

G|-5-----5-5-----5-5-5-5---5---5-5-|-4-----4-4-----4-4-4-4---4-------|

D|-5-----5-5-----5-5-5-5---5---5-5-|-4-----4-4-----4-4-4-4---4-------|

A|-3-----3-3-----3-3-3-3---3---3-3-|-2-----2-2-----2-2-2-2---2-------|

E|-3-----3-3-----3-3-3-3---3---3-3-|-2-----2-2-----2-2-2-2---2-------|

| d u d u d u d d d u | d u d u d u d d |

G|-----------------5---5---5---5---|-----------------4---------------|

D|---------------------------------|---------------------------------|

A|-3---------0h3-------------------|-2---------0h2-------------------|

E|---------------------------------|---------------------------------|

E|-------------------------------------------------------------------|

H|--3----------------------------------------------------------------|

G|-----------5------4------------------------5-4--2--4--5------------|

D|--------------------2----------------------------------------------|

A|-------------------------------------------------------------------|

E|- - a ----------|

| | |

.1E|-0-E7--0-0-----0-0-0-0---0---0-0-|-0-Am--0-0-----0-0-0-0---0---0-0-|

H|-3-----3-3-----3-3-3-3---3---3-3-|-1-----1-1-----1-1-1-1---1---1-1-|

G|-1-----1-1-----1-1-1-1---1---1-1-|-2-----2-2-----2-2-2-2---2---2-2-|

D|-2-----2-2-----2-2-2-2---2---2-2-|-2-----2-2-----2-2-2-2---2---2-2-|

A|-2-----2-2-----2-2-2-2---2---2-2-|-0-----0-0-----0-0-0-0---0---0-0-|

E|-0-----0-0-----0-0-0-0---0---0-0-|-0-----0-0-----0-0-0-0---0---0-0-|

| d u d u d u d d d u | d u d u d u d d d u |

G|---------------------9-10-9-------|---------------------------------|

D|-----------------6-9-------9-----|-7---------------7---------------|

A|-5-----------7-9-------------7-7-|---------------7---7---------0-2-|

E|---------------------------------|---------------------5-----------|

E|-------------------------------------------------------------------|

H|-------------------------------------------------------------------|

G|------5--5--5--4-----2-------------4-------------------------------|

D|------------------------5--4-----5---------------------------------|

A|-------------------------------------------------------------------|

E|---- o ... --------------------------|

| | |

.1E|-3-C---3-3-----3-3-3-3---3---3-3-|-2-H---2-2-2-2---2---------------|

H|-5-----5-5-----5-5-5-5---5---5-5-|-4-----4-4-4-4---4---------------|

G|-5-----5-5-----5-5-5-5---5---5-5-|-4-----4-4-4-4---4---------------|

D|-5-----5-5-----5-5-5-5---5---5-5-|-4-----4-4-4-4---4---------------|

A|-3-----3-3-----3-3-3-3---3---3-3-|-2-----2-2-2-2---2---------------|

E|-3-----3-3-----3-3-3-3---3---3-3-|-2-----2-2-2-2---2---------------|

| d u d u d u d d d u | d u d u d d |

G|-----------------5---------------|-----------------4---------------|

D|---------------------------------|---------------------------------|

A|-3---------0h3-------------------|-2---------0h2-------------------|

E|---------------------------------|---------------------------------|

. ( )

G D

E|---------------------------------|---------------------------------|

H|---------------------------------|---------------------------------|

G|-------4---4--4----------2-----4--5-----4-4-----2-2----------------|

D|-----------------5-----5---------|---------------------------------|

A|---------------------------------|---------------------------------|

E|----- , - --------------|

G D

E|---------------------------------|---------------------------------|

H|---------------------------------|---------------------------------|

G|-------4-----4-4--------2-------4--2-------------------------------|

D|-----------------5---5-----------|---------4-----------------------|

A|---------------------------------|--------------5------------------|

E|---- , . ---------------|

Am C

E|---------------------------------|---------------------------------|

H|---------------------------------|---------------------------------|

G|-------2--2-----------------2----|-2-------------------------------|

D|--------------5--5-----4--5------|-----5----5-4----5-4---2---------|

A|---------------------------------|---------------------------------|

E|----- o , , - -------|

Hm

E|---------------------------------|

H|---------------------------------|

G|---------------------------------|

D|-------4----4----4---------2--4----2 -|

A|--------------------5-2----------|

E|----- - ...|

... . REST()

| | |

.1E|-------------------------------------------------|-------------------------------------------------|

(acu)H|------------------0----0h3-----------5-----------|-7-----------------------------------------------|

G|-------------------------------------------------|-----------------9-------------------------------|

D|-------------------------------------------------|---------------------9---------------------------|

A|-------------------------------------------------|-------------------------9b10r9--7---------------|

E|-------------------------------------------------|-------------------------------------------------|

| | |

G|---R-----------R-----------R-----------R-----R---|---R-----------R-----------R-----------R-----R---|

D|---E-----------E-----------E-----------E-----E---|---E-----------E-----------E-----------E-----E---|

A|-3-S---3-3-3-3-S---3-3-3-3-S---3-3-3-3-S---3-S---|-2-S---2-2-2-2-S---2-2-2-2-S---2-2-2-2-S---2-S---|

E|---T-----------T-----------T-----------T-----T---|---T-----------T-----------T-----------T-----T---|

.1E|-------------------------------------7-----------|-------------------------------------------------|

H|---------------------7-8-10----------------------|-7-----------------------------------------------|

G|-------------------9-----------------------------|----------------9---7---7h9----------------------|

D|-------------------------------------------------|-------------------------------------------------|

A|-------------------------------------------------|-------------------------------------------------|

E|-------------------------------------------------|-------------------------------------------------|

| | |

G|---R-----------R-----------R-----------R-----R---|---R-----------R-----------R-----------R-----R---|

D|---E-----------E-----------E-----------E-----E---|---E-----------E-----------E-----------E-----E---|

A|-3-S---3-3-3-3-S---3-3-3-3-S---3-3-3-3-S---3-S---|-2-S---2-2-2-2-S---2-2-2-2-S---2-2-2-2-S---2-S---|

E|---T-----------T-----------T-----------T-----T---|---T-----------T-----------T-----------T-----T---|

.1E|-------------------------------------------------|-------------------------------------------------|

H|-6-(6)/8-\6--------------------------------------|-------------------------------------------------|

G|-------------7-(7)/9-\7--------------------------|-11----------------------------------------------|

D|-- gliss ----------------8-(8)/10\8--------------|-----11------------------------------------------|

A|-------------------------------------8-----------|---------9---9b10r9------------------------------|

E|-------------------------------------------------|-------------------------------------------------|

| | |

Bass G|---R-----------R-----------R-----------R-----R---|---R-----------R-----------R-----------R-----R---|

D|---E-----------E-----------E-----------E-----E---|---E-----------E-----------E-----------E-----E---|

A|-1-S---1-1-1-1-S---1-1-1-1-S---1-1-1-1-S---1-S---|---S-----------S-----------S-----------S-----S---|

E|---T-----------T-----------T-----------T-----T---|-2-T---2-2-2-2-T---2-2-2-2-T---2-2-2-2-T---2-T---|

.1E|-------------------------------------------------|-------------------7-----7-----------------------|

H|-6-(6)/8-\6--------------------------------------|-------------7-8---------------------------------|

G|-------------7-(7)/9-\7--------------------------|-----8---9---------------------------------------|

D|-- gliss ----------------8-(8)/10\8--------------|-9-----------------------------------------------|

A|-------------------------------------8-----------|-------------------------------------------------|

E|-------------------------------------------------|-------------------------------------------------|

| | |

G|---R-----------R-----------R-----------R-----R---|---R-----------R-----------R-----------R-----R---|

D|---E-----------E-----------E-----------E-----E---|---E-----------E-----------E-----------E-----E---|

A|-1-S---1-1-1-1-S---1-1-1-1-S---1-1-1-1-S---1-S---|-2-S---2-2-2-2-S---2-2-2-2-S---2-2-2-2-S---2-S---|

E|---T-----------T-----------T-----------T-----T---|---T-----------T-----------T-----------T-----T---|

.:

E|-------------------------------------------------|-------------------------------------------------|

H|-11~~~-------------------10~~~~~~~~--------------|-------------------------------------------------|

G|-------------------------------------12~~~~~-----|-------12~~~~~~~--------------9~~~~~~~-----------|

D|----------------------------------------------12-|-12/14---------------9-9-9/12--------------------|

A|-------------------------------------------------|-------------------------------------------------|

E|-------------------------------------------------|-------------------------------------------------|

| | |

G|---R-----------R-----------R---------------------|---R-----------R-----------R---------------------|

D|---E-----------E-----------E---------------------|---E-----------E-----------E---------------------|

A|-3-S---3-3-3-3-S---3-3-3-3-S---3-3-3-3-3-3-3-3-3-|-2-S---2-2-2-2-S---2-2-2-2-S---2-2-2-2-2-2-2-2-2-|

E|---T-----------T-----------T---------------------|---T-----------T-----------T---------------------|

E|-------------------------------------------------|-------------------------------------------------|

H|-------------------------------------------------|-------------------------------------------------|

G|-11~~~--12p11------------------------------------|-11----12p11-------------------------------------|

D|-------------12----------12/14-------------------|------------12-----------12-\9-------------------|

A|-------------------------------------------------|-------------------------------------------------|

E|-------------------------------------------------|-------------------------------------------------|

| | |

G|---R-----------R-----------R---------------------|---R-----------R-----------R---------------------|

D|---E-----------E-----------E---------------------|---E-----------E-----------E---------------------|

A|-3-S---3-3-3-3-S---3-3-3-3-S---3-3-3-3-3-3-3-3-3-|-2-S---2-2-2-2-S---2-2-2-2-S---2-2-2-2-2-2-2-2-2-|

E|---T-----------T-----------T---------------------|---T-----------T-----------T---------------------|

E|-------------------------------------------------|-------------------------------------------------|

H|-11----------11------(11)bend13release11~~~~~~~~-|-11----------11-----(11)bend13release11~~~~~~~~--|

G|---10--10--10------------------------------------|---11--11--11------------------------------------|

D|-----12--12--------------------------------------|-----12--12--------------------------------------|

A|-------------------------------------------------|-------------------------------------------------|

E|-------------------------------------------------|-------------------------------------------------|

| | |

G|---R-----------R-----------R---------------------|---R-----------R-----------R---------------------|

D|---E-----------E-----------E---------------------|---E-----------E-----------E---------------------|

A|-1-S---1-1-1-1-S---1-1-1-1-S---1-1-1-1-1-1-1-1-1-|---S-----------S-----------S---------------------|

E|---T-----------T-----------T---------------------|-2-T---2-2-2-2-T---2-2-2-2-T---2-2-2-2-2-2-2-2-2-|

E|-13p10--------- T ------------------------------------------------|-11--------------11--12--11~~~~~~~~~~~~~~~~~-----|

H|------13p11h13-15p13p11--------- T -------------------------------|-----12------------------------------------------|

G|-----------------------12p10h12-15p12p10-----------12bend15rel12--|---------11--------------------------------------|

D|----------------------------------------12p10---------------------|-------------13----------------------------------|

A|---------------------------------------------13p10----------------|-------------------------------------------------|

E|------------------------------------------------------------------|-------------------------------------------------|

| | |

G|---R-----------R-----------R---------------------|---R-----------R-----------R---------------------|

D|---E-----------E-----------E---------------------|---E-----------E-----------E---------------------|

A|-1-S---1-1-1-1-S---1-1-1-1-S---1-1-1-1-1-1-1-1-1-|-2-S---2-2-2-2-S---2-2-2-2-S---2-2-2-2-2-2-2-2-2-|

E|---T-----------T-----------T---------------------|---T-----------T-----------T---------------------|

E|-------------------------------------------------------------------|

H|-------------------------------------------------------------------|

G|--4--------------5----4-2----------4--2--0-2------------4----------|

D|---------5--2--------------------------------2-0---2---------------|

A|-------------------------------------------------------------------|

E|- , - --------|

| | |

.1E|-0-Em------------0-Am------------|-2-D-------------0-Em------------|

H|-0---------------1---------------|-3---------------0---------------|

G|-0---------------2---------------|-2---------------0---------------|

D|-2---------------2---------------|-0---------------2---------------|

A|-2---------------0---------------|-0---------------2---------------|

E|-0---------------0---------------|-0---------------0---------------|

E|------------------------------------------------------ ritenuto ---|

H|-------------------------------------------------------------------|

G|--------4----------5-----4--2--------------------------------------|

D|-2---------5----2-------------5-----4------5-------4----------5----|

A|-------------------------------------------------------------------|

E|- , a - - |

| | |

.1E|-0-Em------------0-Am------------|-2-F#------------2-H-------------|

H|-0---------------1---------------|-2---------------4---------------|

G|-0---------------2---------------|-3---------------4---------------|

D|-2---------------2---------------|-4---------------4---------------|

A|-2---------------0---------------|-4---------------2---------------|

E|-0---------------0---------------|-2---------------2---------------|

E|-------------------------------------------------------------------|

H|-------------------------------------------------------------------|

G|-------------------------------------------------------------------|

D|--2----------------------------------------------------------------|

A|-------------------------------------------------------------------|

E|-...... --------------------------------------------------------|

| | |

.1E|-0-------Em----------------------|---------------------------------|

H|--0------------------------------|---------------------------------|

G|---0-----------------------------|---------------------------------|

D|----2----------------------------|---------------------------------|

A|------2--------------------------|---------------------------------|

E|--------0------------------------|---------------------------------|

.

 

 

 

...

 
 
 
     
 
 
| | | | | | | | | |
 

.net     , ,

 
24.12.2011
06.03.2004
 
 
    Internet Map Rambler's Top100

. . . .

, , ZaG

zagstudio