Аккорды для всех - сайт народных аккордов
 
Аккорды и тексты песен
Guitar Pro табулатуры
Уроки игры на гитаре
Таблица аккордов
Бесплатные программы для музыкантов
Фотографии музыкантов
Видеоклипы
Каталог ссылок
Обратная связь
На главную страницу
 
 
     
 
 

Аккорды, песни, текст, табулатура



Кипелов - Возьми мое сердце

 

 

Вступление (основная тема) -2 раза

 

   Dm                Dsus2             Dsus4             Dm

E--------------1--|--------------0--|--------------3--|--------------1--|

H----------3------|----------3------|----------3------|----------3------|

G------2----------|------2----------|------2----------|------2----------|

D--0--------------|--0--------------|--0--------------|--0--------------|

A-----------------|-----------------|-----------------|-----------------|

E-----------------|-----------------|-----------------|-----------------|

 

Аккорд BbDim

E|-3-|

H|-2-|

G|-3-|

D|-2-|

A|---|

E|---|

Dm

Слепая ночь легла у ног

И не пускает за порог

Dm

Брожу по дому как во сне

Но мне покоя нет нигде

Gm              A7

Тупая боль пробьет висок

Dm              Bbdim

И пальцы лягут на курок

Gm             Bbdim           

А в зеркалах качнется призрак

Bb          A

Призрак любви.

 

            Dm

Возьми мое сердце

            F

Возьми мою душу

          Gm

Я так одинок в этот час

             C

Что хочу умереть

            Dm

Мне некуда деться

               F

Свой мир я разрушил

               Gm

По мне плачет только свеча

               C

На холодной заре

Ты умерла в дождливый день

И тени плыли по воде

Я смерть увидел в первый раз

Ее величие и грязь

В твоих глазах застыла боль

Я разделю ее с тобой

А в зеркалах качнется призрак

Призрак любви

F       Bb        C

Я слышу утренний колокол

F           Bb  C

Он славит праздник

F        Bb

И сыпет медью и золотом

Dm                   C

Ты теперь в царстве вечного сна

F       Bb        C

Я слышу утренний колокол

F          Bb C

Он бесов дразнит

F         Bb      C

И звоном небо расколото

Dm            C

На земле я любил лишь тебя...

 

    Dm             Dsus2          Dsus4                     D5

E------------1--|-----------0--|--------------3---2------|---------|

H---------3-----|--------3-----|----------3-----------3--|----3----|

G------2--------|-----2--------|------2------------------|---2-----|

D---0-----------|--0-----------|--0----------------------|--0------|

A---------------|--------------|-------------------------|---------|

E---------------|--------------|-------------------------|---------|

  ... Возьми мое сердце

 

 

 
 
 
     
 
 
 

инженеров.netДомашняя страницаНезависимый морской сайтПортал для гитаристовПриколы, юмор, анекдоты

 
обновлен 24.12.2011
в сети с 06.03.2004
 
 
Неофициальный морской сайт Домашняя страница Яндекс цитирования Internet Map Rambler's Top100
Учет посещений на народе

все тексты песен являются собственностью их автора. песени взяты из открытых источников. на сайте размещены с целью ознакомления. при использовании материалов сайта ссылка на сайт обязательна.

по всем вопросам стучитесь в асю или пишите на электропочту

идея, дизайн, редактирование Леха ZaG Загрядский

zagstudio