Аккорды для всех - сайт народных аккордов
 
Аккорды и тексты песен
Guitar Pro табулатуры
Уроки игры на гитаре
Таблица аккордов
Бесплатные программы для музыкантов
Фотографии музыкантов
Видеоклипы
Каталог ссылок
Обратная связь
На главную страницу
     
 
 

Аккорды, песни, текст, табулатура



Кипелов - Кто ты?

 

 

1-Й КУПЛЕТ:

E|---------------------------------------------------------------------------|

B|---------------------------------------------------3----1----3---1---------|

G|-2-----0-----0------------------2-----0----0-------4----2----4---2---------|

D|---4-----2-----2--4-----4-2-------4-----2----2-----------------------------|

A|--------------------5------3-3-----------------------0----0----0---0-------|

E|-----0-----0----------0-----0--------0----0--------------------------------|

   сно -  ва   в пол -   ночь      слы -  шy       чей- то  го-лос

E|-----------------------------------------------------------------0---------|

B|---------------------------------------0----0-----3---1---0-------0-0------|

G|-2-----0-----0------------------2-------0----0----4---2---0---2----0-------|

D|---4-----2-----2--4-----4-2-------4---------------------------3-------452--|

A|--------------------5------3-3---------------------------------------------|

E|-----0-----0----------0-----0--------0-----0-------0---0---0---0-----------|

   шеп - чет        и - мя        ма - нит        и  зо- вёт ме - ня

E|-------------------------------------------------0-------------------------|

B|-8-----7-----7---5-----4-----4---1-----4-------4---4-----------------------|

F|---9-----8-----8---5-----5-----5---2-----5---5-----------------------------|

D|-----------------------------------------------------5---5-4-2-1-----------|

A|-----0-----0---------0-----0---------0-----0---------------------3-2-------|

E|---------------------------------------------------------------------------|

   и  бе- лым     тy- ма- ном           на стё-клах чей - то вздох оставлен

E|-------------------------------------------------0---3-----2---------------|

B|-8-----7-----7---5-----4-----4---1-----4-------4---4---5-----4-------------|

G|---9-----8-----8---5-----5-----5---2-----5---5-----------5-----------------|

D|---------------------------------------------------------------5-4---------|

A|-----0-----0---------0-----0---------0-----0-----------------------3-2-----|

E|-----------------------------------------------------------------------3---|

   и  гас-нет   вдpyг пла-мя            хотя   нет  вет - 

E|-----------------------------------------------------------------0---------|

B|---------------------------------------0---0------3---1---0-------0-0------|

G|-2-----0-----0-------------------2-------0--0-----4---2---0---2----0-------|

D|---4-----2-----2--4-----4-2--------4--------------------------3-------452--|

A|--------------------5------3-3---------------------------------------------|

E|-----0-----0----------0-----0--------0-----0-------0---0---0---0-----------|

   ви - жy        тень   я        кто - то     в  чёp-ном  y   ок-на

ПРИПЕВ:

   C  B        Em        G       B

 Кто ты - наказанье или милость?

 Кто ты? Отpекаться не спеши.

 Может за дyшой моей явилась...

  C      A     Em

 Только нет дyши.

2-Й КУПЛЕТ:

 Пpоклят, бpошен, словно камень с неба.

 Стpашно падать, только ждать ещё стpашней.

 Всё помнить и жаждать любви, но быть pаспятым ею

 И мчаться к безyмью, yслышав голос...

 Ровно в полночь снова тень идёт ко мне.

ПРИПЕВ.

 

 

 
 
 
     
 
 
 

инженеров.netДомашняя страницаНезависимый морской сайтПортал для гитаристовПриколы, юмор, анекдоты

 
обновлен 24.12.2011
в сети с 06.03.2004
 
 
Неофициальный морской сайт Домашняя страница Яндекс цитирования Internet Map Rambler's Top100
Учет посещений на народе

все тексты песен являются собственностью их автора. песени взяты из открытых источников. на сайте размещены с целью ознакомления. при использовании материалов сайта ссылка на сайт обязательна.

по всем вопросам стучитесь в асю или пишите на электропочту

идея, дизайн, редактирование Леха ZaG Загрядский

zagstudio