Аккорды для всех - сайт народных аккордов
 
Аккорды и тексты песен
Guitar Pro табулатуры
Уроки игры на гитаре
Таблица аккордов
Бесплатные программы для музыкантов
Фотографии музыкантов
Видеоклипы
Каталог ссылок
Обратная связь
На главную страницу
 
 
     
 
 

Аккорды, песни, текст, табулатура



Кино - Легенда

 

 

Вступление:
       C                 G                 C                 Em
-------0-|-0---3-0---------|-----0---------0-|-0---3-0-------0-|-0-------0-----
-0-1-3-1-|---1-----1-----3-|-3-----3-------1-|---1-----1---1-0-|---0---0---0---
-------0-|-----------0-2-4-|---4-----4---4-0-|-----------0---0-|-----0-------0-
-------2-|---------------5-|-----------5---2-|---------------2-|---------------
-------3-|-----------------|---------------3-|---------------2-|---------------
-------0-|-----------------|---------------0-|---------------0-|---------------

       F                 Em                Am                
-------1-|-1---------------|-----------------|---1-1-----1-2---|--------------
-------1-|-----------3---0-|--0---1----0-----|---2-2-----2-2---|--------------
-------2-|---2-0---2---2-0-|----2--------2-2-|---2-2-----2-2---|--------------
-------3-|-------3---------|-----------------|-----------------|--------------
-------3-|-----------------|---------------0-|-0-----0-0-------|--------------
-------1-|-----------------|-----------------|-----------------|--------------
         
        Am
В сети связок
                         Em
В горле комом теснится крик,
       Am
Но настала пора,
                      G
И тут уж кричи, не кричи.
       C
Лишь потом
                          G
Кто-то долго не сможет забыть,
         Am
Как, шатаясь, бойцы
                     Em
Об траву вытирали мечи.

И как хлопало крыльями
Черное племя ворон,
Как смеялось небо,
А потом прикусило язык.
И дрожала рука
У того, кто остался жив,
И внезапно в вечность
Вдруг превратился миг.
И горел
Погребальным костром закат,
И волками смотрели
Звезды из облаков.
Как, раскинув руки,
Лежали ушедшие в ночь,
И как спали вповалку
Живые, не видя снов...
А "жизнь" - только слово,
Есть лишь любовь и есть смерть...
Эй! А кто будет петь,
Если все будут спать?
Смерть стоит того, чтобы жить,
А любовь стоит того, чтобы ждать...

      Примечание. На самом деле играется в си-минор: Hm Fm# Hm A D G Hm Fm#
 

 

 

 
 
 
     
 
 
 

инженеров.netДомашняя страницаНезависимый морской сайтПортал для гитаристовПриколы, юмор, анекдоты

 
обновлен 24.12.2011
в сети с 06.03.2004
 
 
Неофициальный морской сайт Домашняя страница Яндекс цитирования Internet Map Rambler's Top100
Учет посещений на народе

все тексты песен являются собственностью их автора. песени взяты из открытых источников. на сайте размещены с целью ознакомления. при использовании материалов сайта ссылка на сайт обязательна.

по всем вопросам стучитесь в асю или пишите на электропочту

идея, дизайн, редактирование Леха ZaG Загрядский

zagstudio