Аккорды для всех - сайт народных аккордов
 
Аккорды и тексты песен
Guitar Pro табулатуры
Уроки игры на гитаре
Таблица аккордов
Бесплатные программы для музыкантов
Фотографии музыкантов
Видеоклипы
Каталог ссылок
Обратная связь
На главную страницу
 
 
     
 
 

Аккорды, песни, текст, табулатура



Кино - Кукушка

 

 

  Am              C               G
-|-------|-------|-------|-------|-------|-------|-------|-
-|-------|-------|-------|-------|-------|-------|-------|-
-|-------|-------|-------|----0--|-------|-------|-------|-
-|-------|2------|2----0-|2------|0------|-------|-------|-
-|0-----3|----3--|-------|-------|------3|2------|-------|-
-|-------|-------|-------|-------|-------|-------|-------|-

варианты окончаний:
-|-------|- -|-------|- -|-------|- -|-------|-
-|-------|- -|-------|- -|-------|- -|-------|-
-|-------|- -|-------|- -|-------|- -|------2|-
-|-------|- -|------0|- -|-------|- -|--2----|-
-|3-2-0--|- -|3-2-3--|- -|3-2-0--|- -|3------|-
-|------3|- -|-------|- -|------3|- -|-------|-

Am
Песен еще ненаписанных, сколько?
         G    Dm    Am
Скажи, кукушка, пропой.
 Am
В городе мне жить или на выселках,
                            G   Dm
Камнем лежать или гореть звездой?
                              Am
                        
Звездой.

         G      F               Am
       
Солнце мое - взгляни на меня,
        G      F                   Am
        Моя ладонь превратилась в кулак,
         G          F             Am
        И если есть порох - дай огня.
        GF   Am
        Вот так... /Am C F/

Кто пойдет по следу одинокому?
Сильные да смелые
Головы сложили в поле в бою.
Мало кто остался в светлой памяти,
В трезвом уме да с твердой рукой в строю,
                                 в строю.

        Солнце мое - взгляни на меня,
        Моя ладонь превратилась в кулак,
        И если есть порох - дай огня.
        Вот так...

Где же ты теперь, воля вольная?
С кем же ты сейчас
Ласковый рассвет встречаешь? Ответь.
Хорошо с тобой, да плохо без тебя,
Голову да плечи терпеливые под плеть,
                           под плеть.

        Солнце мое - взгляни на меня,
        Моя ладонь превратилась в кулак,
        И если есть порох - дай огня.
        Вот так...

 

 

 

 
 
 
     
 
 
 

инженеров.netДомашняя страницаНезависимый морской сайтПортал для гитаристовПриколы, юмор, анекдоты

 
обновлен 24.12.2011
в сети с 06.03.2004
 
 
Неофициальный морской сайт Домашняя страница Яндекс цитирования Internet Map Rambler's Top100
Учет посещений на народе

все тексты песен являются собственностью их автора. песени взяты из открытых источников. на сайте размещены с целью ознакомления. при использовании материалов сайта ссылка на сайт обязательна.

по всем вопросам стучитесь в асю или пишите на электропочту

идея, дизайн, редактирование Леха ZaG Загрядский

zagstudio