Аккорды для всех - сайт народных аккордов
 
Аккорды и тексты песен
Guitar Pro табулатуры
Уроки игры на гитаре
Таблица аккордов
Бесплатные программы для музыкантов
Фотографии музыкантов
Видеоклипы
Каталог ссылок
Обратная связь
На главную страницу
 
 
     
 
 

Аккорды, песни, текст, табулатура



King Crimson - Epitaph


Em                    F#m+(Add B)       Am              B+  B
The wall on which the prophets wrote is cracking at the seams
Upon the instruments of death the sunlight brightly gleams
When every man is torn apart with nightmares and with dreams
Will no one lay the laurel wreath as silence drowns the screams

Em                      Bm
Confusion will be my epitaph
As I walk a cracked and broken path               C
If we make it we can all sit back and laugh but I fear tomorrow
          Bm
I?ll be crying

Em                    F#m+(Add B)       Am              B+  B
Between the iron gates of fate the seeds of time were sown
And watered by the deeds of those who know and who are known
Knowledge is a deadly friend when no one sets the rules
The fate of all mankind I see is in the hands of fools

Проигрыш:

E|---------------|---------------|---------------|
B|---------------|---------------|---------------|
G|-----0---0-----|-----0---0-----|-----2---2-----|
D|---2---2---2---|---2---2---2---|---0---0---0---|
A|-2-----------2-|-2-------------|-2-----------2-|
E0---------------0-------------0-2---------------2|

E|---------------|---------------|
B|---------------|---1-0-1-0-1---|
G|---1-----2-----|---------------|
D|-----0-----0---|-2-----------2-|
A|-2-----2-----0-0---------------|
E|---------------|---------------|

E|---------------|---------------|---------------|
B|---1-0-1-0-1---|-----0-4-0-----|-------4-------|
G|---------------|---0-------0---|-----4---4-----|
D|-2-----------2-|-1-----------1-|-1-4-------4-1-|
A0---------------2---------------2---------------|
E|---------------|---------------|---------------|

Em                      Bm
Confusion will be my epitaph
As I walk a cracked and broken path               C
If we make it we can all sit back and laugh but I fear tomorrow
          Bm
I?ll be crying

 

 

 
 
 
     
 
 
 

инженеров.netДомашняя страницаНезависимый морской сайтПортал для гитаристовПриколы, юмор, анекдоты

 
обновлен 24.12.2011
в сети с 06.03.2004
 
 
Неофициальный морской сайт Домашняя страница Яндекс цитирования Internet Map Rambler's Top100
Учет посещений на народе

все тексты песен являются собственностью их автора. песени взяты из открытых источников. на сайте размещены с целью ознакомления. при использовании материалов сайта ссылка на сайт обязательна.

по всем вопросам стучитесь в асю или пишите на электропочту

идея, дизайн, редактирование Леха ZaG Загрядский

zagstudio