Аккорды для всех - сайт народных аккордов
 
Аккорды и тексты песен
Guitar Pro табулатуры
Уроки игры на гитаре
Таблица аккордов
Бесплатные программы для музыкантов
Фотографии музыкантов
Видеоклипы
Каталог ссылок
Обратная связь
На главную страницу
 
 
     
 
 

Аккорды, песни, текст, табулатура



King Crimson - The Great Deceiver


1          2          3            4
E----------------------------------------------------|
B-T--------------------------------------------------|
G-A--------------------------------------------------| 8 раз.
D-B--------------------------------------------------|
A-----0----7--6--5--0--3--0--------------------3--0--|
E-------------------------------0--3--0--3--0--------|

      1             2              3             4
E----------------------------------------------------------|
B-T--------------------------------------------------------|
G-A--------------------------------------------------------|
D-B----------------------------------------------11--9--7--|
A-----7--10--10--7--10--10--7--10--10--7--10--7------------|
E----------------------------------------------------------|

     1             2              3             4
E----------------------------------------------------------|
B-T--------------------------------------------------------|
G-A--------------------------------------------------------|
D-B---------------------------------------------12--11-----|
A----7--10--10--7--10--10--7--10--10--7--10--7-------------|
E----------------------------------------------------------|

     1    2    3    4          1    2     3    4
E---/21-------------14-------|-12---------------|
B-T--x--------------x--------|-x----------------|
G-A-/18-------------11-------|-9----------------|
D-B-/19-------------11-------|-11---------------|
A----------------------------|------------------|
E----------------------------|------------------|

     1    2    3    4          1    2     3    4
E---/21-------------14-------|-12--/20----17----|
B-T--x--------------x--------|-x----x-----x-----|
G-A-/18-------------11-------|-9---/18----14----|
D-B-/19-------------11-------|-11--/19----14----|
A----------------------------|------------------|
E----------------------------|------------------|

     1             2               3              4
E--------------------------------------------------------------|
B-T-----------------------------------------------14--12--10---|
G-A--9--12--12--9--12--12---9--12--12--9--12--9----------------|
D-B-----------------------------------------------11--9---7----|
A----7--10--10--7--10--10---7--10--10--7--10--7----------------|
E--------------------------------------------------------------|

     1             2               3              4
E--------------------------------------------------------------|
B-T-----------------------------------------------15----14-----|
G-A--9--12--12--9--12--12---9--12--12--9--12--9----------------|
D-B-----------------------------------------------12----11-----|
A----7--10--10--7--10--10---7--10--10--7--10--7----------------|
E--------------------------------------------------------------|

E------------0-0-|-----------------|-0----------------|
B-T----------1-1-|-----------------|-1----------------|
G-A----------2-2-|-----------------|-2----------------|
D-B--------------|-----------------|------------------|
A----------------|-----------------|------------------|
E----------------|-----------------|------------------|

E----0-----------|-----------------|
B-T--1-----------|-----------------|
G-A--2-----------|-----------------|
D-B--------------|-----------------|
A----------------|-----------------|
E----------------|-----------------|

E------------------0---------------|--------------3---------------|
B-T----------------0---------------|--------------0---------------|
G-A----------------0-/-/-----------|--------------2---------------|
D-B---7---5---4----2---------------|--7---5---4---2---------------|
A-----7---5---4----3---------------|--7---5---4---3---------------|
E-----5---3---2--------------------|--5---3---2-------------------|

E----------------|-----------------|
B-T--------------|-----------------|
G-A--------------|-----------------|
D-B--------------|-----------------|
A----------------|-----------------|
E----------------|-----------------|

E------------------0---------------|--------------3---------------|
B-T----------------0---------------|--------------0---------------|
G-A----------------0-/-/-----------|--------------2---------------|
D-B---7---5---4----2---------------|--7---5---4---2---------------|
A-----7---5---4----3---------------|--7---5---4---3---------------|
E-----5---3---2--------------------|--5---3---2-------------------|
[section 4]
1st chorus

     1  2  3  4  5  6     1  2  3  4  5  6
E-----------------------|-------------------|
B-T--10-------10--------|-13-------10-------|
G-A---------------------|-12----------------|
D-B--7--------7---------|-10-------7--------|
A----0--------0---------|----------0--------|
E-----------------------|-------------------|

     1   2    3    4  5  6    1  2  3  4  5  6      1  2  3  4  5  6
E---------------------------|---------------------|--------------------|
B-T--10--10---10------------|-10-------10---------|-10-----------------|
G-A-------------------------|---------------------|----------9---------|
D-B--7---7----7-------------|-7--------7----------|-7--------9---------|
A----0---0----0-------------|-0--------0----------|-0--------7---------|
E---------------------------|---------------------|----------0---------|

E-----/17---17----17----17---17----17----17---17----17----17----17----------|
B-T-------------------------------------------------------------------------|
G-A------------14----14---------12----12---------------------------17^18----|
D-B----------------------------------------------------------16-------------|
A------------------------------------------------------15-------------------|
E------------------------------------------------14-------------------------|

E----17---17----17----17---17----17----17---17----17----17----17------------|
B-T--------------------------------------------13---------------------------|
G-A----------14----14---------12----12--------------------------------------|
D-B--------------------------------------------------16---------------------|
A----------------------------------------------------------15---------------|
E----------------------------------------------------------------14---------|

E----17--17----17----17---17----17----17---17----17----17----17----17-------|
B-T-------------------------------------------13----------------------------|
G-A---------14----14---------12----12---------------14----------------14----|
D-B-------------------------------------------------------16----------------|
A---------------------------------------------------------------15----------|
E---------------------------------------------------------------------------|

E----17--17----17----17---17----17----17---17----17----17----17----17-------|
B-T-------------------------------------------------------------------------|
G-A---------14----14---------12----12---------14---^17---^17---^17---^17----|
D-B-------------------------------------------------------------------------|
A---------------------------------------------------------------------------|
E---------------------------------------------------------------------------|

E----17---17----17----17---17----17----17---17----17----17----17------------|
B-T--------------------------------------------13---------------------------|
G-A----------14----14---------12----12--------------------------------------|
D-B--------------------------------------------------16---------------------|
A----------------------------------------------------------15---------------|
E----------------------------------------------------------------14---------|

E------------------0---------------|--------------3---------------|
B-T----------------0---------------|--------------0---------------|
G-A----------------0--/-/----------|--------------2---------------|
D-B---7---5---4----2---------------|--7---5---4---2---------------|
A-----7---5---4----3---------------|--7---5---4---3---------------|
E-----5---3---2--------------------|--5---3---2-------------------|

E----17--17----17----17---17----17----17---17----17----17----17-------------|
B-T-------------------------------------------------------------------------|
G-A---------14----14---------12----12---------------------------17^18-------|
D-B-------------------------------------------------------16----------------|
A---------------------------------------------------15----------------------|
E---------------------------------------------14----------------------------|

E----17--17----17----17---17----17----17---17----17----17----17----17-------|
B-T-------------------------------------------------------13----------------|
G-A---------14----14---------12----12---------------14----------14----------|
D-B-------------------------------------------16----------------------16----|
A---------------------------------------------------------------------------|
E---------------------------------------------------------------------------|

E----17--17----17----17---17----17----17---17---17----17----17----17-17-----|
B-T-------------------------------------------------------------------------|
G-A---------14----14---------12----12--------------------X-----17-----------|
D-B------------------------------------------------16-----------------------|
A--------------------------------------------15-----------------------------|
E---------------------------------------------------------------------------|

E----17--17----17----17---17----17----17---17----17----17----17-------------|
B-T-------------------------------------------------------------------------|
G-A---------14----14---------12----12---------17---^17---^17---^17----------|
D-B-------------------------------------------------------------------------|
A---------------------------------------------------------------------------|
E---------------------------------------------------------------------------|
   1  2  3  4  5  6     1  2  3  4  5  6
E-----------------------|-------------------|
B-T---------------------|-------------------|  Играть 3 раза
G-A--0--------0---------|-5--------6--------|
D-B--7--------7---------|-5--------5--------|
A----7--------7---------|-3--------4--------|
E----5--------5---------|-------------------|

     1     2      3      4      5     6       1     2     3    4
E-------------------------------------------|------------------------|
B-T--10-------------------------------------|------------------------|
G-A-----/-----/---/------/---/-----/--/-----|-/--/-----/--/----/-----|
D-B--7--------------------------------------|------------------------|
A-------------------------------------------|------------------------|
E-------------------------------------------|------------------------|

    1     2     3     4     5     6       1     2    3     4     5     6
E---------------------------------------|--------------------------------------|
B-T-------------------------------------|--------------------------------------|
G-A-/--/----/---/-----/--/--/-----/-----|-/--/----/--/-----/--/-----/--/-------|
D-B-------------------------------------|--------------------------------------|
A---------------------------------------|--------------------------------------|
E---------------------------------------|--------------------------------------|

    1    2     3     4     5     6       1     2     3     4     5     6
E--------------------------------------|--------------------------------------||
B-T------------------------------------|--------------------------------------||
G-A-/-/-----/--/-----/--/-----/------/-|-/--/-----/-----/--/------------------||
D-B------------------------------------|--------------------------------------||
A--------------------------------------|--------------------------------------||
E--------------------------------------|--------------------------------------||

 

 

 
 
 
     
 
 
 

инженеров.netДомашняя страницаНезависимый морской сайтПортал для гитаристовПриколы, юмор, анекдоты

 
обновлен 24.12.2011
в сети с 06.03.2004
 
 
Неофициальный морской сайт Домашняя страница Яндекс цитирования Internet Map Rambler's Top100
Учет посещений на народе

все тексты песен являются собственностью их автора. песени взяты из открытых источников. на сайте размещены с целью ознакомления. при использовании материалов сайта ссылка на сайт обязательна.

по всем вопросам стучитесь в асю или пишите на электропочту

идея, дизайн, редактирование Леха ZaG Загрядский

zagstudio