Аккорды для всех - сайт народных аккордов
 
Аккорды и тексты песен
Guitar Pro табулатуры
Уроки игры на гитаре
Таблица аккордов
Бесплатные программы для музыкантов
Фотографии музыкантов
Видеоклипы
Каталог ссылок
Обратная связь
На главную страницу
 
 
     
 
 

Аккорды, песни, текст, табулатура



Калинов мост - Торопятся взгляды (2 вариант)


intro
  D                    Cm
E|-----2--------2----|-------------------|
B|----3-3-3----3-3-3-|----4--------4-----|
G|---2---2-2--2---2-2|---5-5-5----5-5-5--|
D|-0---------0-------|--5---5-5--5---5-5-|
A|-------------------|-3--------3--------|
E|-------------------|-------------------|

  D          G            G7
E|-----------------------|------------|
B|-----7--7---8----8--8--|-6---6---6--|
G|----7-7--7----7---7--7-|---7--7---7-|
D|---7---7----5--5---5---|----5--5----|
A|-5---------------------|------------|
E|-----------------------|------------|

E|-------------------------------|
B|---4-3h4p3---------------------|
G|----------5--4h5--------0----0-|
D|-----------------4h5---0----0--|
A|-3-------------------1----2----|
E|-------------------------------|

E|---1//4---4---------------------|
B|---0--------(0)------3--3/4---4-|
G|-1--//4-4------(4)---4--4/5-5---|
D|--------------------------------|
A|----------------------------3---|
E|--------------------------------|

E|-------------------------------|
B|---4-3h4p3---------------------|
G|----------5--4h5--------0----0-|
D|-----------------4h5---0----0--|
A|-3-------------------1----2----|
E|-------------------------------|

E|---1//4---4---------7-7/8---8---|
B|---0--------(0)-----8-8---------|
G|-1--//4-4------(4)--------5-----|
D|--------------------------------|
A|--------------------------------|
E|--------------------------------|

E|--------------------------|
B|----10--------7-----0--/3-|
G|-11---11---8----8---------|
D|-------------------0--/3--|
A|-9---------6--6-6---------|
E|--------------------------|

E|-----------------------------------------------------|
B|----10---------7-----------8-----8---6-----6-----6---|
G|-11----11---8----8-------7---7----7----7-----7-----7-|
D|-----------------------5-------5---------5-----5-----|
A|-9--9--9----6--6-6---5-------------------------------|
E|-----------------------------------------------------|

Не уберечь в облаках       (криво)
E|-------------8-----------------------------5-----------------|
B|-----------7---7------------8------------7---7-----8-----8-6-|
G|---------8------8---------7---7--------5-------5-----7---7-7-|
D|-------7------------5---5-------5----7-----------7-5---5-----|
A|--3//6----------------5------------6-------------------------|
E|-------------------------------------------------------------|

Торопятся взгляды
Успеть оседлать
Трепет ресниц сухих.
Усмехом заклятым
Плавник осетра
Видеть разлив Оки.
Дрогнули затемно,
Смехом легли,
Выбрались рассвет встречать
                     в закрома.
Следом стрела умна,
Перья легки,
Ринулась в цель от плеча
                   шаг хромать:
- Не уберечь в облаках...
Урочить досужий
Звенел серебром,
Плачем летел в пыли.
Распятьем задушен,
Хрустело ребро
Пухом чужих перин.
И поделом ручьи
Щеки секут, -
Ныне коней сажень
                     путана
Через ноздрю учил
Ночью якут
Не проморгать взашей
                        удали:
-  Чужих переч  не отругать...

         Cm -> D

 

 

 
 
 
     
 
 
 

инженеров.netДомашняя страницаНезависимый морской сайтПортал для гитаристовПриколы, юмор, анекдоты

 
обновлен 24.12.2011
в сети с 06.03.2004
 
 
Неофициальный морской сайт Домашняя страница Яндекс цитирования Internet Map Rambler's Top100
Учет посещений на народе

все тексты песен являются собственностью их автора. песени взяты из открытых источников. на сайте размещены с целью ознакомления. при использовании материалов сайта ссылка на сайт обязательна.

по всем вопросам стучитесь в асю или пишите на электропочту

идея, дизайн, редактирование Леха ZaG Загрядский

zagstudio