Аккорды для всех - сайт народных аккордов
 
Аккорды и тексты песен
Guitar Pro табулатуры
Уроки игры на гитаре
Таблица аккордов
Бесплатные программы для музыкантов
Фотографии музыкантов
Видеоклипы
Каталог ссылок
Обратная связь
На главную страницу
 
 
     
 
 

Аккорды, песни, текст, табулатура



Калинов мост - Смеялись дети


Intro
E|-------------------------------------------------------------|
B|-------------------------------------------------------------|
G|4~6-----2-4-6-----4-2----------------------------------------|
D|----2~4-------2-4-----2-4-4-5-7-4-2-2-0--2-0------5-4-4-2-0-5|
A|----------------------------------------4----4-4-4-----------|
E|-------------------------------------------------------------|

E|-------------------------------------------------------------|
B|-------------------------------------------------------------|
G|------------2-4----------------------------------------------|
D|-4-2-4--4-5-----0-2--3--2-0-----5--3-5-3-2-0-3--3-1-0--------|
A|-----------------------------3------------------------3-2----|
E|----------------------------------------------------------3?-|

    D
...смехом свеченный
  G
Брызги звал извечь
  Cm
В день чужих затей.

В скалах выгранил
Плески плеч твоих,
Чуб крылом задел.

Окольчуженный,
Цветом щек горчу, -
Падал горстью петь.

Неразгаданный,
Дно таила гать, -
Хвост рассек ступень.

            D
Распятый в снах!
          G7
Теперь никто не спросит,
 Cm           Fm
Как умел встречать
       D7
дождями осень,
         G7         Cm
Греть травой обрывы рек.

Брить тугой колчан ветрами,
Долей брать ладонь ульчан,
Прощать молвой,
роднить тропой, -
Ребром телег.

Невестить перья по хребту
Коврами храбрым,
Заклинать лапту
В осколки мудрых "верь",
Вить гнезда в голосах.

Был бы только взгляд подарен,
Как весной в дозор удалый
Сел озера
Отыскал в сухих глазах.

Смеялись дети нам в ответ
И было так светло,
Что вязью Вед
темнели губы,
Хлопьями хмелел закат.

Звенели алым небеса рябин,
В волокнах талых стыл мазар -
Молчали ножны,
Сивый ус кусал казак...

outro
E|-------------------------------------------------------------|
B|------------------------6-8---6------------6---8-8-6-----6-8-|
G|-5-7-8-8-7-5-4-5-7-8-5-8----8---8-7-5-8-7-8--7------8-7-5----|
D|-------------------------------------------------------------|
A|-------------------------------------------------------------|
E|-------------------------------------------------------------|

 

 

 
 
 
     
 
 
 

инженеров.netДомашняя страницаНезависимый морской сайтПортал для гитаристовПриколы, юмор, анекдоты

 
обновлен 24.12.2011
в сети с 06.03.2004
 
 
Неофициальный морской сайт Домашняя страница Яндекс цитирования Internet Map Rambler's Top100
Учет посещений на народе

все тексты песен являются собственностью их автора. песени взяты из открытых источников. на сайте размещены с целью ознакомления. при использовании материалов сайта ссылка на сайт обязательна.

по всем вопросам стучитесь в асю или пишите на электропочту

идея, дизайн, редактирование Леха ZaG Загрядский

zagstudio