Аккорды для всех - сайт народных аккордов
 
Аккорды и тексты песен
Guitar Pro табулатуры
Уроки игры на гитаре
Таблица аккордов
Бесплатные программы для музыкантов
Фотографии музыкантов
Видеоклипы
Каталог ссылок
Обратная связь
На главную страницу
 
 
     
 
 

Аккорды, песни, текст, табулатура



Iron Maiden - Total Eclipse


Intro:
E|---------------------------|-------1-----------3-----|
B|---------------------------|---------1-----------3---|
G|---------------------------|-----------2-----------4-|
D|--7-----5-5-----5-----7-7--|-------------------------|
A|--7-----5-5-----3-----5-5--|----3-----------5--------|
E|--5-----3-3-----3-----5-5--|--1-----------3----------|

E|-----------------------------------|------1-----------3-----|
B|-----------------------------------|--------1-----------3---|
G|-----------------------------------|----------2-----------4-|
D|-7---5-5---7-----5-5-----5-----7-7-|------------------------|
A|-7---5-5---7-----5-5-----3-----5-5-|---3-----------5--------|
E|-5---3-3---5-----3-3-----3-----5-5-|-1-----------3----------|

Riff 2:
E|-----------------------------|----------------------------|
B|-----------------------------|----------------------------|
G|--2---------2---2---------2--|--7---------7---9---------9-|
D|--2---------2---3---------3--|--5---------5---7---------7-|
A|--0---0-0-0-0---0---0-0-0-0--|--0---0-0-0-0---0---0-0-0-0-|
E|-----------------------------|----------------------------|

Chorus:
           Sunrise is gone
E|-----------------------------------|
B|-----------------------------------|
G|-----------------------------------|
D|-----------------------------------|
A|--1-2-1----------------------------|
E|--------3-0-0-0-0-0-0-0-0-0-0-0-0--|

         freezing up the fires
E|------------------------------------------|
B|------------------------------------------|
G|------------------------------------------|
D|------------------------------2-----------|
A|--1-2-1-----------------------0---1-2-1---|
E|--------3-0-0-0-0-0-0-0-0-3-------------3-|

           Sunrise is gone
E|-----------------------------------|
B|-----------------------------------|
G|-----------------------------------|
D|-----------------------------------|
A|--1-2-1----------------------------|
E|--------3-0-0-0-0-0-0-0-0-0-0-0-0--|

          numbing all desires
E|--------------------------------|
B|--------------------------------|
G|--------------------------------|
D|------------------------------2-|
A|--1-2-1-----------------------0-|
E|--------3-0-0-0-0-0-0-0-0-3-----|

Riff 3:
E|-----------------------|--1-----------3-|
B|-----------------------|--1-----------3-|
G|-----------------------|--2-----------4-|
D|--7-----5-----5-----7--|--3-----------5-|
A|--7-----5-----3-----5--|--3-----------5-|
E|--5-----3-----3-----5--|--1-----------3-|

E|-----------------------------------|--1-----------3-|
B|-----------------------------------|--1-----------3-|
G|-----------------------------------|--2-----------4-|
D|--7-----5-----7-----5-----5-----7--|--3-----------5-|
A|--7-----5-----7-----5-----3-----5--|--3-----------5-|
E|--5-----3-----5-----3-----3-----5--|--1-----------3-|

Solo-riff 1:
E|--------------------------------------------|
B|--------------------------------------------|
G|--------------------------------------------|
D|--------------------------------------5---7-|
A|--7---7-7-7-7-7---7-7-7-7-7---7-7-7-7-3---5-|
E|--------------------------------------------|

Solo-riff 2:
E|------------------------------------------|
B|------------------------------------------|
G|------------------------------------------|
D|----------------------------------------5-|
A|----------------------------------------5-|
E|--2---2-2-2-2-2---2-2-2-2-2---2-2-2-2-2-3-|

On the fourth time of Solo-riff 2:
E|------------------------------------------------|
B|------------------------------------------------|
G|------------------------------------------------|
D|-------------------------5--4--2----------------|
A|----------------------------------5--4--2-------|
E|--2---2-2-2-2-2--2-2-2-2-------------------5--3-|

Riff 4:
   Gone are the days when man looked down
E|--1------------0---------0----------3-|
B|--3------------1---------1----------3-|
G|--2------------2---------0----------0-|
D|--0------------2---------2----------0-|
A|---------------0---------3----------2-|
E|------------------------------------3-|
   They?ve taken away his sacred crown
E|--1------------0---------0----------3-|
B|--3------------1---------1----------3-|
G|--2------------2---------0----------0-|
D|--0------------2---------2----------0-|
A|---------------0---------3----------2-|
E|------------------------------------3-|

   To be so free, it took so long
E|--1------------0---------0----------3-|
B|--3------------1---------1----------3-|
G|--2------------2---------0----------0-|
D|--0------------2---------2----------0-|
A|---------------0---------3----------2-|
E|------------------------------------3-|

   It?s not the journeys end, it?s just begun
E|--1------------0---------0----------3-|
B|--3------------1---------1----------3-|
G|--2------------2---------0----------0-|
D|--0------------2---------2----------0-|
A|---------------0---------3----------2-|
E|------------------------------------3-|

Outro:
E|---------------------------|-------1-----------3-----|
B|---------------------------|---------1-----------3---|
G|---------------------------|-----------2-----------4-|
D|--7-----5-5-----5-----7-7--|-------------------------|
A|--7-----5-5-----3-----5-5--|----3-----------5--------|
E|--5-----3-3-----3-----5-5--|--1-----------3----------|

E|-----------------------------------------|
B|-----------------------------------------|
G|-----------------------------------------|
D|--7-----5-5-----7-----5-5-----5-----7-7--|
A|--7-----5-5-----7-----5-5-----3-----5-5--|
E|--5-----3-3-----5-----3-3-----3-----5-5--|

E|-------1-----------3---------------|
B|---------1-----------3-------------|
G|-----------2-----------4-----------|
D|-------------------------7-----5-5-|
A|----3-----------5--------7-----5-5-|
E|--1-----------3----------5-----3-3-|

Songstructure:
Intro
Riff 2 (6 times)
Chorus
Riff 2 (6 times)
Chorus
Riff 3
Solo-riff 1 (4 times)
Solo-riff 2 (4 times)
Riff 4 (4 times)
Outro
END

Lyrics:

Cold as steel the darkness waits, its hour will come
A cry of fear for the chosen worshipping the sun
Mother natures black revenge on those who waste her life
War babies in the garden of Eden shall turn our ashes to ice

Sunrise is gone, freezing up the fires
Sunrise is gone, numbing all desires
Sunrise is gone, Sunrise is gone

Around the world the people stop with terror-sticken eyes
A shadow cast upon them all to crush them like a fly
In the icy rain and whiplashed seas there?s nowhere left to run
The hammer blows of winter fall like a hurricane

Sunrise is gone, freezing up the fires
Sunrise is gone, numbing all desires

Around the world the nations wait
for some wise words from their leading light
You know it?s not only madmen who listen to fools
"Is this the end" the millions cried
clutching their riches as they died
Those who survive must weather the storm

Gone are the days when man looked down
They?ve taken away his sacred crown
To be so free, it took so long
It?s not the journeys end, it?s just begun

 

 

 
 
 
     
 
 
 

инженеров.netДомашняя страницаНезависимый морской сайтПортал для гитаристовПриколы, юмор, анекдоты

 
обновлен 24.12.2011
в сети с 06.03.2004
 
 
Неофициальный морской сайт Домашняя страница Яндекс цитирования Internet Map Rambler's Top100
Учет посещений на народе

все тексты песен являются собственностью их автора. песени взяты из открытых источников. на сайте размещены с целью ознакомления. при использовании материалов сайта ссылка на сайт обязательна.

по всем вопросам стучитесь в асю или пишите на электропочту

идея, дизайн, редактирование Леха ZaG Загрядский

zagstudio