Аккорды для всех - сайт народных аккордов
 
Аккорды и тексты песен
Guitar Pro табулатуры
Уроки игры на гитаре
Таблица аккордов
Бесплатные программы для музыкантов
Фотографии музыкантов
Видеоклипы
Каталог ссылок
Обратная связь
На главную страницу
 
 
     
 
 

Аккорды, песни, текст, табулатура



Iron Maiden - The Wicker Man


E|-----------------------------------------------------|
B|-----------------------------------------------------|
G|-----------------------------------------------------|
D|--9-9---------9-9---------9-9-----------------12-12--|8 times
A|--7-7---------7-7---------7-7----------10-10--10-10--|
E|------0-0-0-0-----0-0-0-0-----0-0-0-0--8--8----------|

E|-------------------------------------------------------------|
B|-------------------------------------------------------------|
G|-------------------------------------------------------------|
D|-7---7-9-5----12-12--11-9-7---7-9-5---------5-5-7-----9-9--5-|
A|-5---5-7-3----10-10--9--7-5---5-7-3----5-5--3-3-5-----7-7--3-|
E|---------------------------------------3-3-------------------|

E|--------------------------------------|
B|--------------------------------------|
G|--------------------------------------|
D|--12-12--11-9-7-----7-9-5----5--7-7---|
A|--10-10--9--7-5-----5-7-3----3--5-5---|
E|--------------------------------------|

E|-------------------------------------|
B|-12-10-12-10-12----12-10-12-10-12----|
G|----------------12----------------12-|
D|-------------------------------------|
A|-------------------------------------|
E|-------------------------------------|<
                                        < 4 times
E|-------------------------------------|<
B|-12-10-12-10-12----12-10-12-13-12----|
G|----------------12----------------12-|
D|-------------------------------------|
A|-------------------------------------|
E|-------------------------------------|

E|-----------------------------------------------------|
B|-----------------------------------------------------|
G|-----------------------------------------------------|
D|--9-9---------9-9---------9-9-----------------12-12--| 4 times
A|--7-7---------7-7---------7-7----------10-10--10-10--|
E|------0-0-0-0-----0-0-0-0-----0-0-0-0--8--8----------|

E|-------------------------------------------------------------|
B|-------------------------------------------------------------|
G|-------------------------------------------------------------|
D|-7---7-9-5----12-12--11-9-7---7-9-5---------5-5-7-----9-9--5-|
A|-5---5-7-3----10-10--9--7-5---5-7-3----5-5--3-3-5-----7-7--3-|
E|---------------------------------------3-3-------------------|

E|--------------------------------------|
B|--------------------------------------|
G|--------------------------------------|
D|--12-12--11-9-7-----7-9-5----5--7-7---|
A|--10-10--9--7-5-----5-7-3----3--5-5---|
E|--------------------------------------|

E|-------------------------------------|
B|-12-10-12-10-12----12-10-12-10-12----|
G|----------------12----------------12-|
D|-------------------------------------|
A|-------------------------------------|
E|-------------------------------------|<
                                        < 4 times
E|-------------------------------------|<
B|-12-10-12-10-12----12-10-12-13-12----|
G|----------------12----------------12-|
D|-------------------------------------|
A|-------------------------------------|
E|-------------------------------------|

Solo Part:
E|-----------------------------------------------------|
B|-----------------------------------------------------|
G|-----------------------------------------------------|
D|--------------7------7------7-9----7-9-10-9-7--------|
A|--7--9-10-7-----9-10---9-10-----10------------10-7---|
E|-----------------------------------------------------|

E|--0-0-12-10-0-0-14-12-0-0-0-14-15-17-15-14-----|
B|-------------------------------------------17--|
G|-----------------------------------------------|
D|-----------------------------------------------|
A|-----------------------------------------------|
E|-----------------------------------------------|

E|----)full--7-8-7-10-7----------------------------|
B|--10------------------10-12-8-12-10-12-8-10-10-0-|
G|-------------------------------------------------|
D|-------------------------------------------------|
A|-------------------------------------------------|
E|-------------------------------------------------|

E|-------)full--7-------------------------|
B|-----10---------7-10-10-7-10-9-7---9-7--|
G|-9-8-----------------------------9------|
D|----------------------------------------|
A|----------------------------------------|
E|----------------------------------------|

E|----------------------------|
B|----------------------------|
G|----------------------------|
D|-------7--------7-----------|
A|--9-10---10-9-7---10-9-7-6--|
E|----------------------------|

E|----------------------------------------------------|
B|-0--7-4-0-4-0-4-7-4-0-4-0-4-8-5-0-5-0-5-8-5-0-5-0-5-|
G|----------------------------------------------------|
D|----------------------------------------------------|
A|----------------------------------------------------|
E|----------------------------------------------------|

E|--------------------------------------------|
B|-10-7-0-7-0-7-10-7-0-7-0-7-12-8-0-8-0-8-12--|
G|--------------------------------------------|
D|--------------------------------------------|
A|--------------------------------------------|
E|--------------------------------------------|

E|--------16-17-19-20-19-17----19----------------17-|
B|--17-19-------------------20----20-19-17-19-20----|
G|--------------------------------------------------|
D|--------------------------------------------------|
A|--------------------------------------------------|
E|--------------------------------------------------|

E|----------------------0----------17-19-20--|
B|-20-19-17-20-19-17------17-19-20-----------|
G|-------------------20----------------------|
D|-------------------------------------------|
A|-------------------------------------------|
E|-------------------------------------------|

E|--19-17----17-------------------------|
B|--------20----20-17--15--15-----------|
G|----------------------------17-16-16--|
D|--------------------------------------|
A|--------------------------------------|
E|--------------------------------------|

E|---------------------------------------------------|
B|---------------------------------------------------|
G|---------------------------------------------------|
D|--------------7------7------7-9----7-9-10-9-7------|
A|--7--9-10-7-----9-10---9-10-----10------------10-7-|
E|---------------------------------------------------|

E|--0-0-12-10-0-0-14-12-0-0-0-14-15-17-15-14-----|
B|-------------------------------------------17--|
G|-----------------------------------------------|
D|-----------------------------------------------|
A|-----------------------------------------------|
E|-----------------------------------------------|

E|--------------------------------------|
B|-12-10-12-10-12-----12-10-12-10-12----|
G|----------------12-----------------12-|
D|--------------------------------------|
A|--------------------------------------|
E|--------------------------------------|<
                                          <8 times
E|--------------------------------------|<
B|--12-10-12-10-12----12-10-12-13-12----|
G|-----------------12----------------12-|
D|--------------------------------------|
A|--------------------------------------|
E|--------------------------------------|

E|-----------------------------------------|
B|-----------------------------------------|
G|-----------------------------------------|
D|-9-9-9-9-9-9-9-9-------------------------|
A|-7-7-7-7-7-7-7-7-10-10-10-10-10-10-10-10-|
E|-----------------8--8--8--8--8--8--8--8--|<
                                            < 3 times
E|-----------------------------------------|<
B|-----------------------------------------|
G|-----------------------------------------|
D|-12-12-12-12-12-12-12-12-7-7-7-7-7-7-7-7-|
A|-10-10-10-10-10-10-10-10-5-5-5-5-5-5-5-5-|
E|-----------------------------------------|

E|------------------------------------------|
B|------------------------------------------|
G|------------------------------------------|
D|--9-9-9-9-9-9-9-9-------------------------|
A|--7-7-7-7-7-7-7-7-10-10-10-10-10-10-10-10-|
E|------------------8--8--8--8--8--8--8--8--|

E|------------------------------------|
B|------------------------------------|
G|------------------------------------|
D|-12-12-12-12-12-12-12-12-7-7-7-7-7--|
A|-10-10-10-10-10-10-10-10-5-5-5-5-5--|
E|------------------------------------|

Hand of fate is moving and the finger points to you
He knocks you to your feet and so what are you gonna do
Your tongue has frozen now you?ve got something to say
The piper at the gates of dawn is calling you his way.

You watch the world exploding every single night
Dancing in the sun a new born in the light
Say goodbye to gravity and say goodbye to death
Hello to eternity and live for every breath.

Your time will come
Your time will come

The ferryman wants his money you ain?t going to give it back
He can push his own boat as you set up off the track
Nothing you can contemplate will ever be the same
Every second is a new spark, sets the universe aflame

You watch the world exploding every night
Dancing in the sun a new born in the light
Brothers and their fathers joining hands and make a chain
The shadow of the Wicker man is rising up again.

Your time will come
Your time will come

 

 

 
 
 
     
 
 
 

инженеров.netДомашняя страницаНезависимый морской сайтПортал для гитаристовПриколы, юмор, анекдоты

 
обновлен 24.12.2011
в сети с 06.03.2004
 
 
Неофициальный морской сайт Домашняя страница Яндекс цитирования Internet Map Rambler's Top100
Учет посещений на народе

все тексты песен являются собственностью их автора. песени взяты из открытых источников. на сайте размещены с целью ознакомления. при использовании материалов сайта ссылка на сайт обязательна.

по всем вопросам стучитесь в асю или пишите на электропочту

идея, дизайн, редактирование Леха ZaG Загрядский

zagstudio