Аккорды для всех - сайт народных аккордов
 
Аккорды и тексты песен
Guitar Pro табулатуры
Уроки игры на гитаре
Таблица аккордов
Бесплатные программы для музыкантов
Фотографии музыкантов
Видеоклипы
Каталог ссылок
Обратная связь
На главную страницу
 
 
     
 
 

Аккорды, песни, текст, табулатура



Iron Maiden - The Trooper 


Solo 1: Adrian Smith
    E5                             D5
E|------------12--------12-----------------------|
B|--15b(17)---15b(17)---15b(17)--r15--12---15~~~-|
G|-----------------------------------------------|
D|-----------------------------------------------|
A|-----------------------------------------------|
E|-----------------------------------------------|

            B5                                   C5        D5
E|------15b(17)~-----15--12----------------------------------|
B|--12-------------------------------------------------------|
G|---------------------------15--14--12----------------------|
D|---------------------------------------14b(16)-r14--12-----|
A|--------------------------------------------------------14-|
E|-----------------------------------------------------------|

         E5                                            D5
E|-------------------------------------------------------------|
B|--------------12--15-----------12-15---------12--15----------|
G|--14---b(16)----------14b(16)--------14b(16)---------14b(16)-|
D|-------------------------------------------------------------|
A|-------------------------------------------------------------|
E|-------------------------------------------------------------|

E|-------------------------------------------------------------|
B|-12--15----------12-15----------12-15---------12--15---------|
G|---------14b(16)--------14b(16)-------14b(16)--------14b(16)-|
D|-------------------------------------------------------------|
A|-------------------------------------------------------------|
E|-------------------------------------------------------------|

    B5
E|--------------------------------------------------------|
B|--12--15----------12--15----------12--15---------12--15-|
G|----------14b(16)---------14b(16)--------14b(16)--------|
D|--------------------------------------------------------|
A|--------------------------------------------------------|
E|--------------------------------------------------------|

                      C5          D5     E5
E|----------------------------------------15--19p15--17p15-----|
B|------------------------------------/17-------------------17-|
G|--14----15--14--12--14--14--12~------------------------------|
D|-------------------------------------------------------------|
A|-------------------------------------------------------------|
E|-------------------------------------------------------------|

                                     D5
E|---15--19p15--17p15-----15--19p15--17p15----15--19p15--17p15-|
B|---------------------17------------------17------------------|
G|-------------------------------------------------------------|
D|-------------------------------------------------------------|
A|-------------------------------------------------------------|
E|-------------------------------------------------------------|

                            B5
E|----15-19p15--17p15----15-19p15--17p15------15--19p15--17p15-|
B|-17-----------------17------------------17-------------------|
G|-------------------------------------------------------------|
D|-------------------------------------------------------------|
A|-------------------------------------------------------------|
E|-------------------------------------------------------------|
                                                D5
                      C5   *With harmony(see end of post)
E|-------20b(22)--20b(22)--20b(22)--20b(22)r20--20b(22)r20-|
B|---14----------------------------------------------------|
G|---------------------------------------------------------|
D|---------------------------------------------------------|
A|---------------------------------------------------------|
E|---------------------------------------------------------|
                                                   D5
                      E5                         Harmony ends *
E|--20b(22)r20--20b(22)-----19--20--17--19-----17--------------|
B|------------------------------------------20-----19h20--17~~-|
G|-------------------------------------------------------------|
D|-------------------------------------------------------------|
A|-------------------------------------------------------------|
E|-------------------------------------------------------------|

     B5                                  C5                D5
E|----------12----------12-------------------------------------|
B|------12------15b(17)-----15--12-----------------------------|
G|--/14-----------------------------14b(16)r14--12--14-12------|
D|-------------------------------------------------------------|
A|--------------------------------------------------------14~~-|
E|-------------------------------------------------------------|

Solo 2: Dave Murray
   (D5)   A5                                  G5
E|--------5h8p5h8p5h8p5h8p5---------------------------------|
B|--5h8----------------------8p5h8p5h8p5h8p5----------------|
G|--------------------------------------------7b(9)-(9)r(8)-|
D|----------------------------------------------------------|
A|----------------------------------------------------------|
E|----------------------------------------------------------|

             E5                      F5   G5
E|---------------------------------------------------|
B|-----------------------------------------------5h7-|
G|--7--6--5-----6--5---------------------------------|
D|-----------7--------7------------------------------|
A|-----------------------6--5------------------------|
E|-----------------------------8--5~~----------------|

    A5                                G5
E|--------------5h7p5h7p5h7---------------5h7p5h7p5/7--8p7h8p7-|
B|--5h7p5h7p5-----------------5h7p5h7p6h8----------------------|
G|-------------------------------------------------------------|
D|-------------------------------------------------------------|
A|-------------------------------------------------------------|
E|-------------------------------------------------------------|

              E5                                  F5
E|----7---10b(12)--10b(12)--10b(12)--(12)r10--8--10~~--8-|
B|--10---------------------------------------------------|
G|-------------------------------------------------------|
D|-------------------------------------------------------|
A|-------------------------------------------------------|
E|-------------------------------------------------------|

    G5                          A5
E|-----12-----------12--15--12--15--12--12-----------12-----|
B|-/15-----15b(17)--------------------------15b(17)------15-|
G|----------------------------------------------------------|
D|----------------------------------------------------------|
A|----------------------------------------------------------|
E|----------------------------------------------------------|

                               G5
E|-----------------------------10h12p10------------------------|
B|-13--12--13--12--12------/10-----------10--13b(15)-HOLD BEND-|
G|-------------------------------------------------------------|
D|-------------------------------------------------------------|
A|-------------------------------------------------------------|
E|-------------------------------------------------------------|

                 E5             F5      G5
E|--------------------------------------|
B|--(15)5/---NH---T-bar-----------------|
G|------------12---(9)-/-----17b(19)~~~-|
D|--------------------------------------|
A|--------------------------------------|
E|--------------------------------------|

                A5                                  G5
E|---------------------------------------------20b(22)-(22)r20-|
B|------------------------20b(22)--(22)r20--17-----------------|
G|-/17-19b(21)-(21)r19-17--------------------------------------|
D|-------------------------------------------------------------|
A|-------------------------------------------------------------|
E|-------------------------------------------------------------|

          E5
E|-17----------------20b(22)--20--19--17-----------------------|
B|----20b(22)----17----------------------20b(22)---------------|
G|-----------------------------------------------20b(23)-r(21)-|
D|-------------------------------------------------------------|
A|-------------------------------------------------------------|
E|-------------------------------------------------------------|

    F5             D5 G5 D5
E|------------------------|
B|--1715------------------|
G|---------17--17--14--14-|
D|------------------------|
A|------------------------|
E|------------------------|

Harmony for Solo 1:

E|--14b(15)--14b(15)r14--14b(15)r14--14b(15)r14--14b(15)-|
B|-------------------------------------------------------|
G|-------------------------------------------------------|
D|-------------------------------------------------------|
A|-------------------------------------------------------|
E|-------------------------------------------------------|

E|--12--14-----12---------------------|
B|----------15----13--15--12h13-------|
G|-------------------------------14~~-|
D|------------------------------------|
A|------------------------------------|
E|------------------------------------|

 

 

 
 
 
     
 
 
 

инженеров.netДомашняя страницаНезависимый морской сайтПортал для гитаристовПриколы, юмор, анекдоты

 
обновлен 24.12.2011
в сети с 06.03.2004
 
 
Неофициальный морской сайт Домашняя страница Яндекс цитирования Internet Map Rambler's Top100
Учет посещений на народе

все тексты песен являются собственностью их автора. песени взяты из открытых источников. на сайте размещены с целью ознакомления. при использовании материалов сайта ссылка на сайт обязательна.

по всем вопросам стучитесь в асю или пишите на электропочту

идея, дизайн, редактирование Леха ZaG Загрядский

zagstudio