Аккорды для всех - сайт народных аккордов
 
Аккорды и тексты песен
Guitar Pro табулатуры
Уроки игры на гитаре
Таблица аккордов
Бесплатные программы для музыкантов
Фотографии музыкантов
Видеоклипы
Каталог ссылок
Обратная связь
На главную страницу
 
 
     
 
 

Аккорды, песни, текст, табулатура



Iron Maiden - The Mercenary


Intro: Riff 1
Em
E|-------------------------------|
B|-------------------------------|
G|-------------------------------|
D|9-7-9-12-11-9--9-7-9-12h11h14--|
A|7-5-7-10-9--7--7-5-7--10h9h-12-|
E|-------------------------------|

Verse:
Em
E|----------------------|
B|----------------------|
G|----------------------|
D|-9--7--9----12--11--9-|
A|-7--5--7----10---9--7-|
E|----------------------|
Pay to kill, die to lose

E|------------------------|
B|------------------------|
G|------------------------|
D|-9--7---9-12h-11h----14-|
A|-7--5---7-10h-9h-----12-|
E|------------------------|
Hunted, hunter which you are

дальше также (на каждый слог)

Diablo come again
To make trophies out of men

Lose your skin, lose your skull
One by one the sack is full
In the heat dehydrate
Know which breath will be your last

Pre-chorus:
Em           D               C
E|----------------------------------|
B|----------------------------------|
G|----------------------------------|
D|9-9-9-9-9-9-7-7-7-7-7-7-7-7-5-5-5-|
A|7-7-7-7-7-7-5-5-5-5-5-5-5-5-3-3-3-|
E|----------------------------------|
Nowhere to run, nowhere to hide

C              D            Em
E|------------------------------------|
B|------------------------------------|
G|------------------------------------|
D|5-5-5-5-5-5-5-7-7-7-7-7-7-9-9-9-9-9-|
A|3-3-3-3-3-3-3-5-5-5-5-5-5-7-7-7-7-7-|
E|------------------------------------|
You?ve got to kill to stay alive
дальше также

Nowhere to run, nowhere to hide
You?ve got to kill to stay alive

Bridge=intro

Chorus:
C              D                   Em
E|-------------------------------------------------------------|
B|-------------------------------------------------------------|
G|-------------------------------------------------------------|
D|5-5-5-5-5-5-5-7-7-7-7-7-7-7-7-7-7-9-9-9-12-11-9-7-12-11-9-7--|
A|3-3-3-3-3-3-3-5-5-5-5-5-5-5-5-5-5-7-7-7-10-9--7-5-10--9--7-5-|
E|-------------------------------------------------------------|
Show them no fear, show them no pain

C              D
E|----------------------------------|
B|----------------------------------|
G|----------------------------------|
D|5-5-5-5-5-5-5-7-7-7-7-7-7-7-7-7-7-|
A|3-3-3-3-3-3-3-5-5-5-5-5-5-5-5-5-5-|
E|----------------------------------|

   Em
E|--------------------------------|
B|--------------------------------|
G|--------------------------------|
D|-9-9-9-12-11-12-14-12-11-12-14--|
A|-7-7-7-10-9--10-12-10--9--10-12-|
E|--------------------------------|
Show them no fear, show them no pain
дальше также

Show them no fear, show them no pain
Show them no fear, show them no pain.

Verse:
Human heart, human mind
Intellect intertwined
Focus sharp in the night
Watch the jungle burning bright

Toe to toe throw the line
Everyone?s caught hand tied
Iron will Iron fist
How could it have come to this?

Pre-chorus:
Nowhere to run, nowhere to hide
You?ve got to kill to stay alive
Nowhere to run, nowhere to hide
You?ve got to kill to stay alive

Chorus:
Show them no fear, show them no pain
Show them no fear, show them no pain
Show them no fear, show them no pain
Show them no fear, show them no pain

 

 

 
 
 
     
 
 
 

инженеров.netДомашняя страницаНезависимый морской сайтПортал для гитаристовПриколы, юмор, анекдоты

 
обновлен 24.12.2011
в сети с 06.03.2004
 
 
Неофициальный морской сайт Домашняя страница Яндекс цитирования Internet Map Rambler's Top100
Учет посещений на народе

все тексты песен являются собственностью их автора. песени взяты из открытых источников. на сайте размещены с целью ознакомления. при использовании материалов сайта ссылка на сайт обязательна.

по всем вопросам стучитесь в асю или пишите на электропочту

идея, дизайн, редактирование Леха ZaG Загрядский

zagstudio