Аккорды для всех - сайт народных аккордов
 
Аккорды и тексты песен
Guitar Pro табулатуры
Уроки игры на гитаре
Таблица аккордов
Бесплатные программы для музыкантов
Фотографии музыкантов
Видеоклипы
Каталог ссылок
Обратная связь
На главную страницу
 
 
     
 
 

Аккорды, песни, текст, табулатура



Iron Maiden - Mother Russia


Вступление-1:

E|-----------6--3--5----13-12-13------------|
B|--3-3-3-----------------------------------|
G|------------------------------------------|
D|--------------------------------12-12-12--|
A|------------------------------------------|
E|------------------------------------------|

E|---------------13-12-13--12------------|
B|-11------10----------------------------|
G|-----12--------------------------------|
D|------------------------------12-12-12-|
A|---------------------------------------|
E|---------------------------------------|

E|----------------13-12-13------------|
B|--11------10------------------------|
G|------12----------------------------|
D|--------------------------12-12-12--|
A|------------------------------------|
E|------------------------------------|

E|---------------------------------------|
B|--11------10------------------11-10-11-|
G|------12--------10-9-10--9-------------|
D|---------------------------------------|
A|---------------------------------------|
E|---------------------------------------|

Вступление -2: повторить два раза.

E|-----5--6-----5-----------|-----5--6-----5-------|
B|-----------8-----6--8--5--|-----------8-----6--5-|
G|--7-----------------------|--7-------------------|
D|--------------------------|----------------------|
A|--------------------------|----------------------|
E|--------------------------|----------------------|

E|-----5--6-----5-----------|----------------------|
B|-----------8-----6--8--5--|-----6--8--6--8--5----|
G|--7-----------------------|--7-----------------7-|
D|--------------------------|----------------------|
A|--------------------------|----------------------|
E|--------------------------|----------------------|

Проигрыш -1: повторить два раза.

E|-----------------------------------------------------|
B|-----------------------------------------------------|
G|--------------------5----------------------------5---|
D|-----7--7--5-7-8--8-3-7-5---------7--7--5-7-8--8-3-7-|
A|--5--5--5--3-5-6--6---5-3-7----5--5--5--3-5-6--6---5-|
E|--3-----------------------5----3---------------------|

E|-----------------------------------------------------|
B|-----------------------------------------------------|
G|--------------------5--------------------------------|
D|-----7--7--5-7-8--8-3-7-5--------5--5------5-5-------|
A|--5--5--5--3-5-6--6---5-3-7---7--3--3--7-8-3-3-8-7-5-|
E|--3-----------------------5---5--------5-6-----6-5-3-|

Куплет:

E|-----------------------------------|
B|-----------------------------------|
G|--7---9-10------12--12--10--10-----|
D|--7---9-10--12--12--12--10--10-----|
A|--5---7-8---12--10--10--8---8------|
E|------------10---------------------|
   Mother Russia how are you sleeping?

E|---------------------------------|
B|---------------------------------|
G|-------7---9-10-------12--12--10-|
D|-------7---9-10--12---12--12--10-|
A|-------5---7-8---12---10--10--8--|
E|-----------------10--------------|
    Middle winter cold winds blow

E|------------------------------------------------------------|
B|------------------------------------------------------------|
G|--7---9-10------12--12--10--10----5---7--9--5---12--12------|
D|--7---9-10--12--12--12--10--10----5---7--9--5---12--12---12-|
A|--5---7-8---12--10--10--8---8-----3---5--7--3---10--10---12-|
E|------------10-------------------------------------------10-|
  From the trees the snowflakes drifting
                         swirling round like ghosts in the snow

E|------------------------------------------------------------|
B|------------------------------------------------------------|
G|--10---12-14--10-----------10-------10---12-14--10----------|
D|--10---12-14--10--8--8--7--10-------10---12-14--10--8--8--7-|
A|--8----10-12--8---8--8--7--8--------8----10-12--8---8--8--7-|
E|------------------6--6--5---------------------------6--6--5-|
 Mother Russia poetry majestic tells the time of a great empire

E|-------------------------------------------------------------|
B|-------------------------------------------------------------|
G|--7---9-10--7--12--12--10-------------------9------12--12--7-|
D|--7---9-10--7--12--12--10--12-------10---12-9--10--12--12--7-|
A|--5---7-8---5--10--10--8---12-------10---12-7--10--10--10--5-|
E|---------------------------10-------8----10----8-------------|
   Turning round the old man ponders reminiscing an age gone by

Проигрыш -1. (повторить два раза)

Проигрыш -2: (повторить два раза):
E|---------------------------------|---------------------------|
B|---------------------------------|---------------------------|
G|---------------------------------|---------------------------|
D|-----5-5-6-6-3-3-5-5-1-1-3-3-----|-----5-5-6-6-3-3-5-5-1-1---|
A|-3-3-------------------------5-5-|-3-3---------------------5-|
E|---------------------------------|---------------------------|

E|---------------------------------|---------------------------|
B|---------------------------------|---------------------------|
G|---------------------------------|---------------------------|
D|-----5-5-6-6-3-3-5-5-1-1-3-3-----|-----1-1-3-3-1-1-3-3-------|
A|-3-3-------------------------5-5-|-3-3-----------------5-5-3-|
E|---------------------------------|---------------------------|

Проигрыш -3:

E|-----------------7----5---------|--8--8--7--5------------|
B|------------5--------------7----|--------------8---------|
G|-----------------4----2---------|--5--5--4--2-------4--7-|
D|------------2--------------4----|--------------5---------|
A|--2----5------------------------|-------------------2--5-|
E|--------------------------------|------------------------|

E|-------7----5---------|--8--8--7--5-------------|
B|--5--------------7----|--------------8----------|
G|-------4----2---------|--5--5--4--2-------4--7--|
D|--2--------------4----|--------------5----------|
A|----------------------|-------------------2--5--|
E|----------------------|-------------------------|

E|-------7----5------|
B|-----------------7-|
G|--5----4----2------|
D|-----------------4-|
A|--3----------------|
E|-------------------|

E|--8--8--7--5--10--8--7--5--|-------7----5---------|
B|---------------------------|--5--------------7----|
G|--5--5--4--2--7---5--4--2--|-------4----2---------|
D|---------------------------|--2--------------4----|
A|---------------------------|----------------------|
E|---------------------------|----------------------|

E|--8--8--7--5----------|
B|--------------8-------|
G|--5--5--4--2-----4--7-|
D|--------------5-------|
A|-----------------2--5-|
E|----------------------|

E|-------7----5---------|--8--8--7--5-------------|
B|--5--------------7----|--------------8----------|
G|-------4----2---------|--5--5--4--2-------4--7--|
D|--2--------------4----|--------------5----------|
A|----------------------|-------------------2--5--|
E|----------------------|-------------------------|

E|-------7----5------|
B|--5--------------7-|
G|-------4----2------|
D|--2--------------4-|
A|-------------------|
E|-------------------|

E|--8--8--7--5-------------|-------7----5-------|
B|--------------8----------|-----------------7--|
G|--5--5--4--2-------4--7--|--5----4----2-------|
D|--------------5----------|-----------------4--|
A|-------------------2--5--|--3-----------------|
E|-------------------------|--------------------|

E|--8--8--7--5--10--8--7--5-|
B|--------------------------|
G|--5--5--4--2--7---5--4--2-|
D|--------------------------|
A|--------------------------|
E|--------------------------|

E|-------7----5---------|--8--8--7--------|
B|--5--------------7----|-----------10--8-|
G|-------4----2---------|--5--5--4--------|
D|--2--------------4----|-----------7---5-|
A|----------------------|-----------------|
E|----------------------|-----------------|

Теперь соло, которое увы, я осилить не смог.

Второй куплет. (Те же рифы, что и первый куплет).

И заканчивается все Вступлением-2.

Текст:

Mother Russia how are you sleeping?
Middle winter cold winds blow
From the trees the snowflakes drifting,
Swirling round like ghosts in the snow
Mother Russia poetry majestic,
Tells the time of a great empire
Turning round the old man ponders,
Reminiscing an age gone by

Mother Russia, dance of the Tsars,
Hold up your heads, be proud of what you are
Now it has come, freedom at last,
Turning the tides of history and your past
Mother Russia, dance of the Tsars,
Hold up your heads, remember who you are
Can you release the anger the grief,
Can you be happy now your people are free

 

 

 
 
 
     
 
 
 

инженеров.netДомашняя страницаНезависимый морской сайтПортал для гитаристовПриколы, юмор, анекдоты

 
обновлен 24.12.2011
в сети с 06.03.2004
 
 
Неофициальный морской сайт Домашняя страница Яндекс цитирования Internet Map Rambler's Top100
Учет посещений на народе

все тексты песен являются собственностью их автора. песени взяты из открытых источников. на сайте размещены с целью ознакомления. при использовании материалов сайта ссылка на сайт обязательна.

по всем вопросам стучитесь в асю или пишите на электропочту

идея, дизайн, редактирование Леха ZaG Загрядский

zagstudio