Аккорды для всех - сайт народных аккордов
 
Аккорды и тексты песен
Guitar Pro табулатуры
Уроки игры на гитаре
Таблица аккордов
Бесплатные программы для музыкантов
Фотографии музыкантов
Видеоклипы
Каталог ссылок
Обратная связь
На главную страницу
 
 
     
 
 

Аккорды, песни, текст, табулатура



Iron Maiden - Killers Solo


Dave`s Solo:

  (see)   (see)   (see)
E|-------------------------------------------------------------|
B|-13b(15)-13b(15)-13b(15)-------------------------------------|
G|---------------------------14b(16)-(16)-(15)-14--12--14b(16)-|
D|-------------------------------------------------------------|
A|-------------------------------------------------------------|
E|-------------------------------------------------------------|

E|---------12-15-12---12---------12----------------------------|
B|-15b(17)----------x----15b(17)----15-12-15p12----------------|
G|----------------------------------------------14b(16)-14-12--|
D|-------------------------------------------------------------|
A|-------------------------------------------------------------|
E|-------------------------------------------------------------|

E|---------|
B|---------|
G|---12h14-|
D|-14------|
A|---------|
E|---------|

 The open B is hardly heard as the high notes should be
 hammered very quickly.
E|----------------------------------12-------------------------|
B|------------0h15h17-0h15h17-14p12----0h15h17-0h15h17-14p12---|
G|14b(16)-(16)----------------------------------------------14~|
D|-------------------------------------------------------------|
A|-------------------------------------------------------------|
E|-------------------------------------------------------------|

E|----------------14h15p14h15p14h15p14h17p15p14h15p14----------|
B|-------14h16h17-------------------------------------17p15----|
G|-14/16----------------------------------------------------15-|
D|-------------------------------------------------------------|
A|-------------------------------------------------------------|
E|-------------------------------------------------------------|

E|-14p12-------|
B|-------15p14-|
G|-------------|
D|-------------|
A|-------------|
E|-------------|

 Concentrate on strumming 16th notes on the
 open E string and quickly dart in and out with
 the high notes.
E|--------------0-0---12-0-0-14-14-0-15--17-15-14--0-0--12-|
B|-12--(12)--0---------------------------------------------|
G|---------------------------------------------------------|
D|---------------------------------------------------------|
A|---------------------------------------------------------|
E|---------------------------------------------------------|

E|-12-0-0-14-0-0-15-15-0-0-17-15-14-0-0-12-12-12-0-0-14-14-0-0-|
B|-------------------------------------------------------------|
G|-------------------------------------------------------------|
D|-------------------------------------------------------------|
A|-------------------------------------------------------------|
E|-------------------------------------------------------------|

E|15-15-17-17-15-14-0-012-12-0-0-14-14-0-015-15-17-15-14-14-0-0|
B|-------------------------------------------------------------|
G|-------------------------------------------------------------|
D|-------------------------------------------------------------|
A|-------------------------------------------------------------|
E|-------------------------------------------------------------|

E|-12-0-0-14-0-0-15-15-0-0-17-14-15p14-17p14-17p14-17p14-17p14-|
B|-------------------------------------------------------------|
G|-------------------------------------------------------------|
D|-------------------------------------------------------------|
A|-------------------------------------------------------------|
E|-------------------------------------------------------------|

E|-17p14-17p14-17p14-14--17b(19)r17--17b(19)--17b(19)--17b(19)-|
B|-------------------------------------------------------------|
G|-------------------------------------------------------------|
D|-------------------------------------------------------------|
A|-------------------------------------------------------------|
E|-------------------------------------------------------------|

Adrian`s solo:

E|--------------------------------------------------|
B|-15-------15--------------------------------------|
G|-14b(16)--14--12-----12--14b(16)--14p12--14b(16)~-|
D|-----------------14-------------------------------|
A|--------------------------------------------------|
E|--------------------------------------------------|

E|---------12---------------12---------------12-------|
B|------------15p12------------15p12------------15p12-|
G|-14b(16)----------14b(16)----------14b(16)----------|
D|----------------------------------------------------|
A|----------------------------------------------------|
E|----------------------------------------------------|

E|---------12--15b(18)r15-----------------------12----|
B|-------------------------------------------------12-|
G|-14b(16)--------------------12h14--14b(16)-14-------|
D|----------------------------------------------------|
A|----------------------------------------------------|
E|----------------------------------------------------|

Hold the bends on the 3rd string to get the unison bend sound.
E|---------14-------------15-----------------------------|
B|------------14-------------15---------17------17-------|
G|-16b(18)--------17b(19)-------19b(21)----(21)----(21)~-|
D|-------------------------------------------------------|
A|-------------------------------------------------------|
E|-------------------------------------------------------|

E|-0--0--20b(22)-------r20-----------------7-------------|
B|--------------------------17---10b(12)----7--10------7-|
G|-------------------------------------------------9-----|
D|----------------------------------------------------9--|
A|-------------------------------------------------------|
E|-------------------------------------------------------|

E|-------------------------------------------------------|
B|-------------------------------------------------------|
G|-10p9--7---9b(11)--7-7~-----------2-4-5-4h5p4---7b(9)~-|
D|---------9------------------2-4-5-------------5--------|
A|------------------------3-5----------------------------|
E|-------------------------------------------------------|

Overdub:
E|----------------------------------------|
B|------------------3--5--3h5p3----7b(8)~-|
G|---------2--4--5---------------4--------|
D|-2--4-5---------------------------------|
A|----------------------------------------|
E|----------------------------------------|

 

 

 
 
 
     
 
 
 

инженеров.netДомашняя страницаНезависимый морской сайтПортал для гитаристовПриколы, юмор, анекдоты

 
обновлен 24.12.2011
в сети с 06.03.2004
 
 
Неофициальный морской сайт Домашняя страница Яндекс цитирования Internet Map Rambler's Top100
Учет посещений на народе

все тексты песен являются собственностью их автора. песени взяты из открытых источников. на сайте размещены с целью ознакомления. при использовании материалов сайта ссылка на сайт обязательна.

по всем вопросам стучитесь в асю или пишите на электропочту

идея, дизайн, редактирование Леха ZaG Загрядский

zagstudio