Аккорды для всех - сайт народных аккордов
 
Аккорды и тексты песен
Guitar Pro табулатуры
Уроки игры на гитаре
Таблица аккордов
Бесплатные программы для музыкантов
Фотографии музыкантов
Видеоклипы
Каталог ссылок
Обратная связь
На главную страницу
 
 
     
 
 

Аккорды, песни, текст, табулатура



Iron Maiden - Aces High


G|-11-----7-------11-------7-------11-----7-------|------------|
D|-11-----7-------11-------7-------11-----7-------|-7-7-7-7-7-7|
A|--9-999-5--777---9--999--5--555---9-999-5-7-7-7-|------------|
E|------------------------------------------------|------------|
                                                    Fast

G|-------------------------------|-----------------------------|
D|7-7-7-3-3-3-3-3-3-5-5-5-5-5-5-5|-----------------------------|
A|-------------------------------|557-7-7-7-557-7-7-7-557-7-7-7|
E|-------------------------------|-----------------------------|
                    Play 4 times    Lyrics enter

G|-------|----------------------------------4---|--------------|
D|----4--|557-7-7-7-557-7-7-7-557-7-7-7-555---5-|--------------|
A|555---5|--------------------------------------|5-7-7-7-7-10-7|
E|-------|--------------------------------------|--------------|
  Play 4 times                      Play 4 times

G|---------------7-6-4-2-5-4-2-0-------------------------------|
D|------7---------------------------------------------7--------|
A|7-7-7---7-7-7-7----------------5-7-7-7-7-10-7-7-7-7---7-7-7-7|
E|-------------------------------------------------------------|

G|-5-4-2-0-2-|-------------------------------------------|-----|
D|-----------|-------------------------------------------|-5-5-|
A|-----------|-7-7-7-7-7-7-7-7-7-7-5-3-3-3-3-3-5-5-5-5-5-|-----|
E|-----------|-------------------------------------------|-----|
                                                   Play 4 times

G|-------------------------------------------------------------|
D|-5-5-5-5-5-5-5-3-1-1-1-3-3-3-3-3-5-5-5-5-5-5-5-5-5-3-1-1-1-1-|
A|-------------------------------------------------------------|
E|-------------------------------------------------------------|

G|-------------------------------------------------------------|
D|3-3-7-3-5-5-5-5-5-5-5-5-3-1-1-1-1-1-3-3-3-3-3-5-5-5-5-5-5-5-5|
A|-------------------------------------------------------------|
E|-------------------------------------------------------------|

G|----------------------------------------7-7------------------|
D|5-3-1-1-1-3-3-8-3-7-10-10-7-7-7-10-9-7-----7-10-10-7-7-10-9-7|
A|--------------------------------------10---------------------|
E|-------------------------------------------------------------|

G|----------------.------------------7-7--------.--------------|
D|----7-7---7-10-10-7-7-7-10-9-7----------7-10-10-7-7-7-10-9-7-|
A|-10----------------------------10----------------------------|
E|-------------------------------------------------------------|

E|----.----------.-|
B|----7----7-10-10-|
G|-10--------------|
D|-----------------|

G|-----------------7-7--------.-----------------------------.--|
D|-7-7-7-10-9-7---------7-10-10-7-7-7-10-9-7----7-7---7-10-10--|
A|--------------10---------------------------10----------------|
E|-------------------------------------------------------------|

E|-------------------|
B|-7-7-7-10-9-7----7-|
G|--------------10---|
D|-------------------|

G|-------------------------------------------------------------|
D|-7-7-10-10-7-7-7-10-9-7----7-7-7-7-7-7-7-7-7-7-5-3-3-3-3-5-5-|
A|------------------------10-----------------------------------|
E|-------------------------------------------------------------|
                                  Guitar solo

G|-------------------------------------------------------------|
D|-5-5-5--7--7-7-7-7--7-7-7-7-5-------------------------7--7-7-|
A|------------------------------3--3-3-3-3--5--5-5-5-5---------|
E|-------------------------------------------------------------|

E|------------------|
B|-7-7--7-7-7-7-7-5-|
G|------------------|
D|------------------|

G|-------------------------------------------------------------|
D|-3--3-3-3-3--5--5-5-5-5--7--7-7-7-7--7-7-7-7-7-5-------------|
A|-------------------------------------------------3--3-3-3-3--|
E|-------------------------------------------------------------|

E|------------------|
B|--------5----9--9-|
G|-5--5-5---5-------|
D|------------------|

G|-------------------------------------------------------------|
D|-9-9-9--9-9-9-9-9-7-5--5-5-5-5--7-7-7-7-7--9--9-9-9-9--9-9-9-|
A|-------------------------------------------------------------|
E|-------------------------------------------------------------|

E|------------------|
B|-9-9-7------------|
G|-------5--5-5-5-5-|
D|------------------|

G|-------------------------------------------------------------|
D|-----------9--9-9-9-9--9-9-9-9-9-7-5--5-5-5-5--7--7-7-7-7--9-|
A|-7-7-7-7-7---------------------------------------------------|
E|-------------------------------------------------------------|

E|-----------------|
B|--9-9-9-9--9-9-9-|
G|-----------------|
D|-----------------|

G|-------------------------------------.-------------------7-7-|
D|-9-9-7------------------7------7-10-10-7-7-7-10-9-7----------|
A|--------5--5-5-5-5--7-7---7-7------------------------10------|
E|-------------------------------------------------------------|

E|--------.-------|
B|--7-10-10-7-7-7-|
G|----------------|
D|----------------|


G|------------------------.------------------7-7---------.-----|
D|-10-9-7-----7-7---7-10-10-7-7-7-10-9-7-----------7-10-10-7-7-|
A|---------10-----------------------------10-------------------|
E|-------------------------------------------------------------|

E|-------------.---|
B|-7-10-9-7----7---|
G|----------10-----|
D|-----------------|

G|-------.------------------7-7---------.----------------------|
D|-7-10-10-7-7-7-10-9-7-----------7-10-10-7-7-7-10-9-7-----7-7-|
A|-----------------------10-----------------------------10-----|
E|-------------------------------------------------------------|

E|--------.-------|
B|--7-10-10-7-7-7-|
G|----------------|
D|----------------|

G|-----------7-7----------.-------------------.--|
D|-10-9-7-----------7-10-10-7-7-7-10-9-7------7--|
A|--------10------------------------------10-----|
E|-----------------------------------------------|

E|-----------------------------|
B|.----------------------------|
G|.--557-7-7-7-557-7-7-7-557-7-|
D|-----------------------------|

G|---------------|-------------------------------------4----|
D|---------4----.|.--557-7-7-7-557-7-7-7-557-7-7-7-555---5-.|
A|-7-7-555---55-.|.----------------------------------------.|
E|---------------|------------------------------------------|
Play 4 times                                 Play 4 times-|

E|------------------|
B|------------------|
G|-5-7-7-7-7-10-7-7-|
D|------------------|

G|---------------7-6-4-2-5-4-2-0-------------------------------|
D|-----7-----------------------------------------------7-------|
A|-7-7---7-7-7-7------------------5-7-7-7-7-10-7-7-7-7---7-7-7-|
E|-------------------------------------------------------------|

E|---5-4-2-0-2-----|
B|-----------------|
G|-7------------5-7|
D|-----------------|

G|----------------------------7-6-4-2-5-4-2-0------------------|
D|------------------7------------------------------------------|
A|-7-7-7-10-7-7-7-7---7-7-7-7-------------------5-7-7-7-7-10-7-|
E|-------------------------------------------------------------|

E|-----------------|
B|-------7---------|
G|-7-7-7---7-7-7-7-|
D|-----------------|

G|-5-4-2-0-2-|-------------------------------------------------|
D|-----------|.-----------------------------------------------.|
A|-----------|.-7-7-7-7-7-7-7-7-7-7-5-3--3-3-3-3--5--5-5-5-5--.|
E|-----------|-------------------------------------------------|
                                              Play 4 times

E|-----------|
B|--5--5-5-5-|
G|-----------|
D|-----------|

G|-------------------------------------------------------------|
D|-5-5-5-5-5-5-3--1-1-1-1-1--3--3-3-3-3--5--5-5-5-5--5-5-5-5-5-|
A|-------------------------------------------------------------|
E|-------------------------------------------------------------|

E|----------------|
B|-3--1-1-1-1-1--3|
G|----------------|
D|----------------|

G|-------------------------------------------------------------|
D|-333-7-3--5--5-5-5-5--5-5-5-5-5-3--1-1-1-1-1--3--3-3-3-3--5--|
A|-------------------------------------------------------------|
E|-------------------------------------------------------------|

E|-----------------|
B|-5-5-5-5--5-5-5-5|
G|-----------------|
D|-----------------|

G|-----------------------------------.-.-.---------------------|
D|-5-3-1-1-1-1-1-333-8-3-7-7-7-7-7-7-7-7-7-3-3-3-3-3-3-5-5-5-5-|
A|-------------------------------------------------------------|
E|-------------------------------------------------------------|

E|--------|
B|-5-5--7-|
G|--------|
D|--------|

G|---------.-.-.---------------------------------.-.-.---------|
D|-7-7-7-7-7-7-7-3-3-3-3-3-3-5-5-5-5-5-7-7-7-7-7-7-7-7-3-3-3-3-|
A|-------------------------------------------------------------|
E|-------------------------------------------------------------|

G|-------------------------------------------------------------|
D|3-5-5-5-5-5-5-7-7-7-7-7-7-7-7-7-3-5/7------------------------|
A|--------------------------------------0-0-0-0-0-0-0-0-0-0-0-0|
E|-------------------------------------------------------------|
                  Ritard.

G|-----h-------------------------------------------------------|
D|----5-7-7-7-7-7-7-7-7-5-7-5-5-7-7-7-7-7-7-7-7-5-5-5----------|
A|-0-0-------------------7---7-----------------------7-7-5-5---|
E|----------------------------------------------------------7-7|

G|--------------------||
D|------------------7-||
A|-----------0-0-0--0-||
E|-5-5--3--5----------||

 

 

 
 
 
     
 
 
 

инженеров.netДомашняя страницаНезависимый морской сайтПортал для гитаристовПриколы, юмор, анекдоты

 
обновлен 24.12.2011
в сети с 06.03.2004
 
 
Неофициальный морской сайт Домашняя страница Яндекс цитирования Internet Map Rambler's Top100
Учет посещений на народе

все тексты песен являются собственностью их автора. песени взяты из открытых источников. на сайте размещены с целью ознакомления. при использовании материалов сайта ссылка на сайт обязательна.

по всем вопросам стучитесь в асю или пишите на электропочту

идея, дизайн, редактирование Леха ZaG Загрядский

zagstudio