Аккорды для всех - сайт народных аккордов
 
Аккорды и тексты песен
Guitar Pro табулатуры
Уроки игры на гитаре
Таблица аккордов
Бесплатные программы для музыкантов
Фотографии музыкантов
Видеоклипы
Каталог ссылок
Обратная связь
На главную страницу
 
 
     
 
 

Аккорды, песни, текст, табулатура



Iron Maiden - Infinite Dreams


[intro]
E|-------------------------------------|
B|-------------------------------------|
G|-------------------------------------|
D|-14^16--14^16v14p12---14--14^16~~~~~-|
A|-------------------------------------|
E|-------------------------------------|

E|--------------------------------------------------|
B|--------------------------------------------------|
G|----------------------15--12----------------------|
D|-14^16--14^16v14p12-----------14^16v14--12--14-()-|
A|--------------------------------------------------|
E|--------------------------------------------------|

[repeat twice, last time slide down ()]

Em7               C        D
Infinite dreams I can`t deny them
infinity is hard to comprehend
I couldn`t hear thouse screams even in my
wildest dreams
Suffocation waking in a sweat
scared to fall a sleep again in the case the
dream begins again
Em7               C        D

E(no 3rd)          C(no 3rd)      D(no 3rd)
Some-one chasing  I can-not   move
standing rigid a nigthmare statue
What a dream where will it end and will
I transcend.
Restless sleep the mind in turmoil
one nightmare ends another fertile
It`s getting to me, so scared to sleep
but scared to wake now in too deep

[slow tempo]
E(no 3rd)        C(no 3rd)
Even though it`s reached new heights
  D(no 3rd)
I rather like the resless nights it
E(no 3rd)        C(no 3rd)
makes me wonder, makes me think there`s
  D(no 3rd)
mopre to this I`m on the brink it`s

G(no 3rd)         Eb(no 3rd)
not the   fear of what`s beyond it`s
 F(no 3rd)
just that I might not respond I
E(no 3rd)        C(no 3rd)
have an int`rest al most craving but
 F(no 3rd)
would I like to get far in. It

E(no 3rd)        C(no 3rd)     D(no 3rd)
can`t be all co-incidence  too many things are evident, you
tell me you`re an unbeliever spiritualist well I`m neither but

G(no 3rd)         Eb(no 3rd)
wouldn`t you like to know the truth
    F(no 3rd)
of what`s out there to have the proof and
G(no 3rd)         Eb(no 3rd)
find out just which side you`re on where
    F(no 3rd)
would you end in heaven or in

[riff 1]
   Hell
  E(!3)          C(!3)          D(!3)
E|-------------------------------------------------------------|
B|-------------------------------------------------------------|
G|-------------------------------------------------------------|
D|2-5-4-5-4-5-4-5-5-4-5-4-5-4-5-0-5-4-5-4-5-4-5-4-0-2-4-5-4-2-0|
A|---------------3---------------------------------------------|
E|-------------------------------------------------------------|

  E(!3)           C(!3)             D(!3)
E|-----------------------------------------------------|
B|-----------------------------------------------------|
G|-----------------------------------------------------|
D|-2-5-4-5-4-5-4-5---5-4-5-4-5-4-5---0-5-4-5-7-5-4-----|
A|-----------------3-------------------------------7-5-|
E|-----------------------------------------------------|

[E!3 = E(no 3rd)]
[repeat riff 1]

   E(!3)           C(!3)              D(!3)
E|------------------------------------------------------|
B|------------------------------------------------------|
G|-0-4-2-4-2-4-2-4---4-2-4-2-4-2-4------4-2-4-5-4-2-0---|
D|-----------------2------------------4---------------4-|
A|------------------------------------------------------|
E|------------------------------------------------------|

   E(!3)           C(!3)              D(!3)(drums change)
E|------------------------------------------------------|
B|------------------------------------------------------|
G|-0-4-2-4-2-4-2-4---4-2-4-2-4-2-4------4-2-4-5-4-2-0---|
D|-----------------2------------------4---------------4-|
A|------------------------------------------------------|
E|------------------------------------------------------|

[riff 2]
[everything is played in triplets]
   E(!3)         C(!3)              D(!3)
E|-------------------------------------------------------------|
B|-------------------------------------------------------------|
G|-------------------------------------------------------------|
D|------------------------------------------------4-5-4--5-4---|
A|-7-7-7--7-7-7--3-3-3--3-3-3-------5-5-5--5-5-5-------------5-|
E|-------------------------------------------------------------|

   E(!3)           C(!3)            D(!3)
E|-------------------------------------------------------------|
B|-------------------------------------------------------------|
G|-------------------------------------------------------------|
D|-------------------------------------------------------------|
A|-7-7-7--7-7-7----3-3-3--3-3-3-----5-5-5--5-5-5--5-5-5--5-5-5-|
E|-------------------------------------------------------------|

[repeat riff 2]
   G(!3)
E|-------------------------------------------------------------|
B|-------------------------------------------------------------|
G|-------------------------------------------------------------|
D|-------------------------------------------------------------|
A|------------------------------------------------2-2-2--2-3-5-|
E|-3-3-3--3-3-3----3-3-3--3-3-3-----3-3-3--3-3-3---------------|

   G(!3)
E|-------------------------------------------------------------|
B|-------------------------------------------------------------|
G|-------------------------------------------------------------|
D|-------------------------------------------------------------|
A|------------------------------------------------2-2-2--2-3-5-|
E|-3-3-3--3-3-3--3-3-3--3-3-3-------3-3-3--3-3-3---------------|

[riff 3]
   E(!3)         D(!3)              G(!3)         C(!3)  D(!3)
E|-------------------------------------------------------------|
B|-------------------------------------------------------------|
G|-------------------------------------------------------------|
D|----------------------------------5-5-5--5-5-5---------------|
A|-7-7-7--7-7-7--5-5-5--5-5-5---------------------3-3-3--5-5-5-|
E|-------------------------------------------------------------|

   E(!3)         D(!3)              G(!3)
E|-------------------------------------------------------------|
B|-------------------------------------------------------------|
G|-------------------------------------------------------------|
D|-------------------------------------------------------------|
A|-7-7-7--7-7-7--5-5-5--5-5-5----------------------------------|
E|----------------------------------3---3----3-3----3------3-3-|

[repeat riff 3]

   G(!3)
E|-------------------------------------------------------------|
B|-------------------------------------------------------------|
G|-------------------------------------------------------------|
D|-------------------------------------------------------------|
A|------------------------------------------------2-2-2--2-3-5-|
E|-3-3-3--3-3-3---3-3-3--3-3-3------3-3-3--3-3-3---------------|

   G(!3)
E|-------------------------------------------------------------|
B|-------------------------------------------------------------|
G|-------------------------------------------------------------|
D|-------------------------------------------------------------|
A|------------------------------------------------2-2-2--2-3-5-|
E|-3-3-3--3-3-3----3-3-3--3-3-3-----3-3-3--3-3-3---------------|

   F(!3)       C(!3)     G(!3)        F(!3)       C(!3)   G(!3)
E|-------------------------------------------------------------|
B|---------------------------8---8-----------------------------|
G|-10----p9p7-------------------------10----p9p7---------------|
D|-------------10--p9p7---------------------------10--p9p7-----|
A|-----------------------10---------------------------------10-|
E|-------------------------------------------------------------|

   F(!3)       C(!3)     G(!3)         F(!3)       C(!3)
E|----------------------------------------------------------|
B|---------------------------8----8-------------------------|
G|-10----p9p7--------------------------10----p9p7-----------|
D|-------------10--p9p7----------------------------10--p9p7-|
A|-----------------------10---------------------------------|
E|----------------------------------------------------------|

[riff 4]
   Em
E|---------------------------------------------|
B|-----------------------12--------------------|
G|-9----9h11h12---11h12------12---11--12~~~~~~-|
D|---------------------------------------------|
A|---------------------------------------------|
E|---------------------------------------------|

Em C [the guitar plays riff 4 while band plays Em C]
Em D [the guitar plays riff 4 while band plays Em D]
Em B [the guitar plays riff 4 while band plays Em B]
Em C [the guitar plays riff 4 while band plays Em C]
Em D [last chord for the band at the last tick]

[riff 5]
   Em
E|-----------------------------------------|
B|-----------------------------------------|
G|-----------------------------------------|
D|-----------------------7-----------------|
A|-5----5h7h9------7h9--------9----7----9--|
E|-----------------------------------------|

Em C [the guitar plays riff 5 while band plays Em C]
Em D [the guitar plays riff 5 while band plays Em D]
Em B [the guitar plays riff 5 while band plays Em B]
Em C [the guitar plays riff 5 while band plays Em C]
Em D [last chord for the band at the last tick]

F#(!3)                         D(!3)         E(!3)  F#(!3) E(!3)
Help me help me to find my true self with-out seeing the fu-ture
F#(!3)                           D(!3)     E(!3)      A(!3)
Save me save me from torturing myself even within my  dreams.

[solo 1]
 E(!3)^_____________v
E|---------------------------------|
B|--15^17----17-17-17v15--13----12-|
G|---------------------------------|
D|---------------------------------|
A|---------------------------------|
E|---------------------------------|
(bend up          release bend)

   G(!3) _______E(!3)
E|-----15^17---v15-14-12-------------------------|
B|-12---------------------15-13-12---------------|
G|----------------------------------14-12-11-----|
D|--------------------------------------------14-|
A|-----------------------------------------------|
E|-----------------------------------------------|

   G(!3) E(!3)                                           G(!3)
E|----------------------------12-------12-14-15-17-15-17-17^19-|
B|-------------13p12--15p13p12---15p12-------------------------|
G|------12p11-------14-----------------------------------------|
D|-12h14-----14------------------------------------------------|
A|-------------------------------------------------------------|
E|-------------------------------------------------------------|

  E(!3)______
E|17^19-19-19-15-15-15-17-17-17-14-14-14-17p15p14-15p14---15p14|
B|------------------------------------------------------17-----|
G|-------------------------------------------------------------|
D|-------------------------------------------------------------|
A|-------------------------------------------------------------|
E|-------------------------------------------------------------|

         G(!3) [solo 2] F#(!3)                     B(!3)
E|------------------------------------------------------|
B|-17--15p13-----17^19--[end solo 1]--------------------|
G|-----------16---------------------------------------9-|
D|-------------------------------------------9-11-12----|
A|--------------/9---------9-11-12--9-11-12-------------|
E|------------------------------------------------------|

   F#(!3)                                           B(!3)
E|-------------------------------------------------------------|
B|-------15-14-12------------------------------------17--20^22-|
G|-10/11----------14-13h14p13-14-13-14-1311-13-11~~------------|
D|-------------------------------------------------------------|
A|-------------------------------------------------------------|
E|-------------------------------------------------------------|

  F#(!3)___                  B(!3)   F#(!3)
E|-19^21----16-17-19-17p16---------16-17-----16----------------|
B|-------------------------19~~~~--------19-----18-19-15-17-14-|
G|-------------------------------------------------------------|
D|-------------------------------------------------------------|
A|-------------------------------------------------------------|
E|-------------------------------------------------------------|

   Em                                                 B(!3)
E|------------------------------------------17-19-21--22^24~~~-|
B|-15----14-----------------------17-19-21---------------------|
G|----16----------------16-18-19-------------------------------|
D|------------16-18-19-----------------------------------------|
A|-------------------------------------------------------------|
E|-------------------------------------------------------------|

Em C [the guitar plays riff 4 while band plays Em C]
Em D [the guitar plays riff 4 while band plays Em D]
Em B [the guitar plays riff 4 while band plays Em B]
Em C [the guitar plays riff 4 while band plays Em C]
Em D [last chord for the band at the last tick]

Em   [the guitar plays riff 4 while band plays Em  ]
Em D [the guitar plays riff 4 while band plays Em D]

   B(!3)            C(!3)    D(!3)
E|----------------------------------|
B|----------------------------------|
G|-4-------4--------5-4--5---7-5--7-|
D|-----4-------4--------------------|
A|----------------------------------|
E|----------------------------------|
                                      There`s

E(!3)          C(!3)           D(!3)
got to be just more to it than this or tell me why do we exist.
I`d like to think that when I die I`d get a chance another time.
G(!3)          Eb(!3)          F(!3)
And to return and live again re - in car-nate playing the game
           a - gain     and  a-gain   and a-
E(!3)
gain.

CHORDS

  Em C D Em7 E(!3) C(!3) D(!3) G(!3) Eb(!3) F(!3) Em C Em D Em B
E|-0--0-2-7----------------------------------------0----0----0-|
B|-0--1-3-8----------------------------------------0----0----0-|
G|-0--0-2-7---9-----5-----7-----------8------------0----0----0-|
D|-2--2-0-9---9-----5-----7-----5-----8------3-----2----0----2-|
A|-2--3---7---7-----3-----5-----5-----6------3-----3---------2-|
E|-0--0---0---0-----------------3------------1-----------------|

   F#(!3) A(!3) B(!3)
E|----------------|
B|----------------|
G|--------2-----4-|
D|-4------2-----4-|
A|-4------0-----2-|
E|-2--------------|

 

 

 
 
 
     
 
 
 

инженеров.netДомашняя страницаНезависимый морской сайтПортал для гитаристовПриколы, юмор, анекдоты

 
обновлен 24.12.2011
в сети с 06.03.2004
 
 
Неофициальный морской сайт Домашняя страница Яндекс цитирования Internet Map Rambler's Top100
Учет посещений на народе

все тексты песен являются собственностью их автора. песени взяты из открытых источников. на сайте размещены с целью ознакомления. при использовании материалов сайта ссылка на сайт обязательна.

по всем вопросам стучитесь в асю или пишите на электропочту

идея, дизайн, редактирование Леха ZaG Загрядский

zagstudio