Аккорды для всех - сайт народных аккордов
 
Аккорды и тексты песен
Guitar Pro табулатуры
Уроки игры на гитаре
Таблица аккордов
Бесплатные программы для музыкантов
Фотографии музыкантов
Видеоклипы
Каталог ссылок
Обратная связь
На главную страницу
 
 
     
 
 

Аккорды, песни, текст, табулатура



Iron Maiden - Fortunes Of War


G|-----9---9---9-------12---12--12-------7--7--7-----4--4--4---|
D|---9---9---9---9----12--12---12--12---7--7--7--7--4--4--4--4-|
A|-7---------------10-----------------5------------2-----------|
E|-------------------------------------------------------------|
 play slowly

G|----5---5---5-----7---7---7-----9---9---9-----9---9---9------|
D|--5---5---5---5-7---7---7---7-9---9---9---9-9---9---9---(9)-.|
A|-3-------------5-------------7-------------7----------------.|
E|-------------------------------------------------------------|
                                  Ritardando on last repetition

Play this riff eight times. THE LAST NOTE IS NOT PLAYED THE
LAST TIME.

Second intro
G|--------------------------7------------------------9---------|
D|.-9---9------9---9---9---5---5-9---9---9---9---9--7--7-9---9-|
A|.---7----7-----7---7-------------7---7---7---7-----------7---|
E|-------------------------------------------------------------|
This is played on an acoustic bass guitar, but it sounds good
on an electric.

G|-----------------7---------------------------------------|
D|---9---9---9--5---5--9---9--------9----------------7-----|
A|-7----7---7-------------7------7-----7----3--3---5-----5-|
E|---------------------------------------------------------|

G|-------------------------------------------------------------|
D|--------------------------------------7-7-7------------------|
A|/7-7-7-7-7-7-7-10-10-10-7-7-7-7-7-7-7-------7-7-7-7-7-7-7-10-|
E|-------------------------------------------------------------|

G|-------|
D|-------|
A|-10-10-|
E|-------|
(/ = slide up)-|
This section uses an electric bass. An acoustic may be used, b-|
ut it will not sound as heavy as it should.

G|-----------------------|
D|----------------------.|
A|-7--7-7--7-7---3--3-5-.|
E|-----------------------|
              ( = slide down)
              Play three times

G|-------------------------------------------------------------|
D|-------------------------------------7-7-7-------------------|
A|/7-7-7-7-7-7-7-10-10-10-7-7-7-7-7-7-7-----7-7-7-7-7-7-7-10-10|
E|-------------------------------------------------------------|

G|-------------------------------------------------------------|
D|-------------------------------------------------------------|
A|-10---7--7-7--7-7---3--3--5---/7--7-7--7-7-7-7--10-10-10--7--|
E|-------------------------------------------------------------|

G|--------------|
D|--------------|
A|-7-7--7-7-7-7-|
E|--------------|

G|----------------------------------------------------------|
D|-7-7-7----------------------------------------------------|
A|---------7--7-7--7-7-7-7--10-10-10---7--7-7--7-7--3--3--5-|
E|----------------------------------------------------------|

G|------------------------------------------------------------|
D|------------------------------------------------------------|
A|-7--7-7-7-0-3--5---7--7-7-7-0-3-3-5-5---7--7-7-7-0-3-3-5-5--|
E|------------------------------------------------------------|

G|----------------|
D|----------------|
A|-7--7-7-7-0-3-0-|
E|----------------|

G|------------------------------------------------------------|
D|------------------------------------------------------------|
A|-7--7-7-7-0-3--5---7--7-7-7-0-3-3-5-5---7--7-7-7-0-3-3-5-5--|
E|------------------------------------------------------------|

G|----------------|
D|----------------|
A|-7--7-7-7-0-3-0-|
E|----------------|

G|------------------------------------------------------------|
D|------------------------------------------------------------|
A|-7--7-7-7-0-3--5---7--7-7-7-0-3-3-0-0---7--7-7-7-0-3-3-5-5--|
E|------------------------------------------------------------|

G|----------------|
D|----------------|
A|-7--7-7-7-0-3-0-|
E|----------------|

G|-------------------------------------------------------------|
D|-------------------------------------------------------------|
A|-7--7-7-7-0-3-3-5---7--7-7-7-0-3-3-0-0--7--7-7-7--0-3-3-5-5--|
E|-------------------------------------------------------------|

G|---------------|
D|---------------|
A|-7-7-7-7-0-3-0-|
E|---------------|

G|-------------------------------------------------------------|
D|-------------------------------------------------------------|
A|-7-7-7-7-7-7-7-7-10-10-10-10-10-10-10-10-3-3-3-3-3-3-3-3-5-5-|
E|-------------------------------------------------------------|

G|-------------|
D|-------------|
A|-5-5-3-3-5-5-|
E|-------------|

Chorus

G|-------------------------------------------------------------|
D|-------------------------------------------------------------|
A|-7-7-7-7-7-7-7-7-10-10-10-10-10-10-10-10-3-3-3-3-3-3-3-3-0-0-|
E|-------------------------------------------------------------|

G|-------------|
D|-------------|
A|-0-0-0-0-0-0-|
E|-------------|

G|---------------------------------|
D|---------------------------------|
A|-3-3-3-3-3-3-3-3-5-5-5-5-5-5-5-5-|
E|---------------------------------|

G|-------------------------------------------|
D|.------------------------------------------|
A|.-7--7-7-7-7-7-7-7-7-7-7-7-7--3--3-3-3-3-3-|
E|-------------------------------------------|
  fast

G|------------------------------------------------------------|
D|------------------------------------------------------------|
A|-3-3-3-3-3-3-3------------------------------5--5-5-5-5-5--3-|
E|----------------3--3-3-3-3-3-3-3-3-3-3-3-3------------------|

G|------------|
D|-----------.|
A|-3-3-3-3-3-.|
E|------------|
  Play this riff four times.

G|-------------------------------------------------------------|
D|-------------------------------------------------------------|
A|-7--7-7-7-7-7-7-7-7-7-7-10-10-10-10-10-10-10-10-10-10-10-3-3-|
E|-------------------------------------------------------------|

G|-----------------|
D|-----------------|
A|-3-3-3-3-3-3-3-3-|
E|-----------------|

G|-------------------------------------------------------------|
D|-------------------------------------------------------------|
A|-3-5-5-5-5-5-5-5-5-5-5-5-----------------------3-3-3-3-3-3-3-|
E|-------------------------3-3-3-3-3-3-3-3-3-3-3---------------|

G|-----------------|
D|-----------------|
A|-3-3-3-3-5-5-5-5-|
E|-----------------|

G|-------------------------------------------------------------|
D|---------------7-7-7-5-5-5-4-4-4-----------------------------|
A|-5-5-5-5-5-5-5-------------------5------7--7-7-7-7-7-7-7-7-7-|
E|-------------------------------------------------------------|

G|------------------|
D|------------------|
A|-7-10-10-10-10-10-|
E|------------------|

G|-------------------------------------------------------------|
D|-------------------------------------------------------------|
A|-10-10-10-10-10-10-3-3-3-3-3-3-3-3-3-3-3-5-5-5-5-5-5-5-5-5-5-|
E|-------------------------------------------------------------|

G|-----------------|
D|-----------------|
A|-5---------------|
E|---3-3-3-3-3-3-3-|

G|-------------------------------------------------------------|
D|-----------------------------------------------------5-5-5-4-|
A|---------3-3-3-3-3-3-3-3-3-3-3-5-5-5-5-5-5-5-5-5-5-5---------|
E|-3-3-3-3-----------------------------------------------------|

G|-------------|
D|-4-4-0-0-0---|
A|-----------0-|
E|-------------|

G|-------------------------------------------------------------|
D|-------------------------------------------------------------|
A|-7--7-7-7-7-7-7-7-7-7-7-10-10-10-10-10-10-10-10-10-10-10-3-3-|
E|-------------------------------------------------------------|

G|-----------------|
D|-----------------|
A|-3-3-3-3-3-3-3-3-|
E|-----------------|

G|-------------------------------------------------------------|
D|-------------------------------------------------------------|
A|-3-5-5-5-5-5-5-5-5-5-5-5-5-------------------------3-3-3-3-3-|
E|----------------------------3-3-3-3-3-3-3-3-3-3-3------------|

G|-------------|
D|-------------|
A|-3-3-3-3-3-3-|
E|-------------|

G|---------------------|---------------------------------------|
D|-7-7-7-5-5-5-4-4-4---|.--------------------------------------|
A|-------------------5-|.-7--7-7-7-7-7-7-7-7-7-7-7-7--10-10-10-|
E|---------------------|---------------------------------------|

G|------------------------------------------------------------|
D|------------------------------------------------------------|
A|-10-10-10-10-10-10-10-10-10-10--3--3-3-3-3-3-3-3-3-3-3-3-3--|
E|------------------------------------------------------------|

G|------------------|
D|------------------|
A|-0--0-0-0-0-0-0-0-|
E|------------------|

G|-------------------------------------------------------------|
D|-------------------------------------------------------------|
A|-0-0-0-0-0-0--3--3-3-3-3-3-3-3-3-3-3-3-3--5--5-5-5-5-5-5-5-5-|
E|-------------------------------------------------------------|

G|----------------|
D|----------7-7-7-|
A|-5-5-5-5--------|
E|----------------|

G|---------------|---------------------------------------------|
D|-5-5-5-4-4-4---|.--------------------------------------------|
A|-------------5-|.-7--7-7-7-7-7-7-7-7-7-0-3-3-3-3-3-3-3-3-3---|
E|---------------|-------------------------------------------3-|

G|-----------------|
D|-----------------|
A|-----------------|
E|-3-3-3-3-3-3-3-3-|
 "oh,ooh"

G|-------------------------|
D|------------------------.|
A|---5--5-5-5-5-3-3-3-3-0-.|
E|-3-----------------------|
             Play 4 times
   ritard. last time only

G|---------------------------------------------------|
D|---------------------------------------------------|
A|-7-7-7-7-7-7-7-7-10-10-10-10-10-10-10-10-3-3-3-3-3-|
E|---------------------------------------------------|

G|------------------------------------------------------------|
D|------------------------------------------------------------|
A|-3-3-3-5-5-5-5-3-3-5-5--7-7-7-7-7-7-7-7-7-10-10-10-10-10-10-|
E|------------------------------------------------------------|

G|-------------------|
D|-------------------|
A|-10-10-3-3-3-3-3-3-|
E|-------------------|

G|---------------------------------------|
D|---------------------------------------|
A|-3-3-0-0-0-0-0-0-0-0-3-3-3-3-3-3-3-3-5-|
E|---------------------------------------|
                     Ritard.

G|------9---9---9---------12---12--12----------7---7---7-------|
D|----9---9---9---9-----12--12---12--12------7---7---7---7---4-|
A|-7-----------------10--------------------5----------------2--|
E|-------------------------------------------------------------|

G|-4---4---4---|
D|---4---4---4-|
A|-------------|
E|-------------|
 play slowly

G|-----5---5---5----------7---7---7--------9---9---9--------9--|
D|---5---5---5---5------7---7---7---7----9---9---9---9----9----|
A|-3------------------5----------------7----------------7------|
E|-------------------------------------------------------------|

G|---9---9---------|
D|-9---9---(9)-----|
A|-------------(7)-|
E|-----------------|
            ritard.

G|-----------------------------7-------------------------------|
D|-9---9---------9---9---9---5---5----9---9---------9------5---|
A|---7------7------7---7----------------7------7------7--3---3-|
E|-------------------------------------------------------------|
This is played on an acoustic bass guitar

G|-----------9---|
D|--7------9---9-|
A|-5--5--7-------|
E|---------------|
 ritard.

G|-9------------||
D|---9----------||
A|------7-----7-||
E|--------------||

 

 

 
 
 
     
 
 
 

инженеров.netДомашняя страницаНезависимый морской сайтПортал для гитаристовПриколы, юмор, анекдоты

 
обновлен 24.12.2011
в сети с 06.03.2004
 
 
Неофициальный морской сайт Домашняя страница Яндекс цитирования Internet Map Rambler's Top100
Учет посещений на народе

все тексты песен являются собственностью их автора. песени взяты из открытых источников. на сайте размещены с целью ознакомления. при использовании материалов сайта ссылка на сайт обязательна.

по всем вопросам стучитесь в асю или пишите на электропочту

идея, дизайн, редактирование Леха ZaG Загрядский

zagstudio