Аккорды для всех - сайт народных аккордов
 
Аккорды и тексты песен
Guitar Pro табулатуры
Уроки игры на гитаре
Таблица аккордов
Бесплатные программы для музыкантов
Фотографии музыкантов
Видеоклипы
Каталог ссылок
Обратная связь
На главную страницу
 
 
     
 
 

Аккорды, песни, текст, табулатура



Iron Maiden - Flight Of Icarus


A    E    F#m
E|--5----0----2-----------------------|
B|--5----0----2-----------------------|
G|--6----1----2-----------------------|
D|--7----2----4----4-4--4----4-4------|
A|--7----2----4----4-4--4----4-4--etc-|
E|--5----0----2----2-2--2----2-2------|

     LET RING        [2nd Verse-hold chord position]
E|--2----------------|-2----------|
B|--2----------------|----2-----5-|
G|--2----------------|-------2----|
D|--4----------------|------------|
A|--4----------------|------------|
E|--2----------------|------------|
   As the sun...

    A    E
E|--5----0-----------|
B|--5----0-----------|
G|--6----1-----------|
D|--7----2-----------|
A|--7----2-LET RING--|
E|--5----0-----------|
   Stands on the Hill

    A    F#m
E|--5----2--|
B|--5----2--|
G|--6----2--|
D|--7----4--|
A|--7----4--|
E|--5----2--|
        A bird song shatters the still

BRIDGE:
    F#(m)            Ab+5 (E/Ab)     A             B    C#
E|--------------------------------------------------------|
B|--------------------------------------------------------|
G|--------------------------------------------------------|
D|-(4)-------------------------------2-------------4----6-|
A|--4----------------7---------------0-------------2----4-|
E|--2----------------4------------------------------------|
   His eyes seem so glazed, see the madman in his gaze

CHORUS:
I`ll try and show the idea of the chorus, listen for the
strumming and chord slides. At the end go back to strumming
the F# power chord as in the intro.

    F#m          E            D C# D                        E
E|--2------------0-------------------------------------------|
B|--2------------0-------------------------------------------|
G|--2------------1-------------------------------------------|
D|--4------------2------------76/7--6/76/7-etc-------6/7--9--|
A|--4------------2------------54/5--4/54/5-----------4/5--7--|
E|--2------------0-------------------------------------------|
   Fly, on your way, like an eagle,        fly as high as the
   Sun, on your way, like an eagle,        fly as high as the

RHYTHM FOR SOLO`S:
    F#m                 A    E    F#m
E|----------------------5----0----2---------|
B|----------------------5----0----2---------|
G|----------------------6----1----2---------|
D|--4---4-4-4-----------7----2----4---4-4-4-|
A|--4---4-4-4-etc-------7----2----4---4-4-4-| etc
E|--2---2-2-2-----------5----0----2---2-2-2-|

    A    E                       A    E    F#m
E|--5----0-----------------------5----0----2---------|
B|--5----0-----------------------5----0----2---------|
G|--6----1----1------------------6----1----2---------|
D|--7----2----2---2-2-2----------7----2----4---4-4-4-|
A|--7----2----2---2-2-2-etc------7----2----4---4-4-4-| etc
E|--5----0----0---0-0-0----------5----0----2---2-2-2-|

For Solo 2 use BRIDGE

ENDING:
Play through BRIDGE several times then on the last one
stop at the B power chord(let it ring) and then strum
F#m fast and end with A E F#m as in the intro.

 

 

 
 
 
     
 
 
 

инженеров.netДомашняя страницаНезависимый морской сайтПортал для гитаристовПриколы, юмор, анекдоты

 
обновлен 24.12.2011
в сети с 06.03.2004
 
 
Неофициальный морской сайт Домашняя страница Яндекс цитирования Internet Map Rambler's Top100
Учет посещений на народе

все тексты песен являются собственностью их автора. песени взяты из открытых источников. на сайте размещены с целью ознакомления. при использовании материалов сайта ссылка на сайт обязательна.

по всем вопросам стучитесь в асю или пишите на электропочту

идея, дизайн, редактирование Леха ZaG Загрядский

zagstudio