-
 
Guitar Pro
 
 
     
 
 

, , ,



-

 

E||--0----5----0----|-----------------|------------0----|--0--------------|

B||-----------------|-------3----1----|-------1---------|-----------------|

G||-----------------|--2--------------|--2--------------|-----------------|

D||-----------------|--2---------2----|-----------------|-----------------|

A||-------0---------|-----------------|-----------------|-----------------|

E||-----------------|-----------------|------------0----|-------2----4----|

 

 

-------0----5----|--0--------------|-----------------|--0--------------|

--3--------------|------------3----|--1---------1----|-----------------|

--4--------------|-------2---------|-------2---------|-------1----2----|

-----------------|-------2---------|-----------------|-----------------|

------------0----|-----------------|-----------------|-----------------|

-----------------|-----------------|--1--------------|--0----0----2----|

 

 

------------0----||---5----5---------|--7----8----7----|--5---------0----|

-----------------||-------------5----|-----------------|-------6---------|

--3----4---------||*------------5----|-----------------|-----------------|

-----------------||*-----------------|-----------------|-------0---------|

-----------------||---0--------------|-------0---------|-----------------|

--3----4---------||------------------|-----------------|-----------------|

 

 

-----------------|-------5----0----|--1---------0----|-----------------|

--3--------------|-----------------|-------1---------|--3----0---------|

-----------------|--2--------------|-------2---------|--1---------1----|

-----------------|--3---------2----|-----------------|--3---------0----|

-------3----2----|-----------------|-----------------|-----------------|

-----------------|-----------------|-----------------|--0--------------|

 

 

-----------------|--0--------------|--0-----||-----------------|-------||

--1---------1----|------------3----|--------||-----------------|-------||

-------2---------|------------1----|-------*||--2--------------|-------||

-----------------|-----------------|-------*||-------2---------|-------||

-------0---------|-----------------|--------||--0---------3----|--0----||

-----------------|-------0---------|--------||-----------------|-------||

 

 

 

 

 

...

 
 
 
     
 
 
| | | | | | | | | |
 

.net     , ,

 
24.12.2011
06.03.2004
 
 
    Internet Map Rambler's Top100

. . . .

, , ZaG

zagstudio