-
 
Guitar Pro
 
 
     
 
 

, , ,



- Jimmy Page Robert PlantStairway to heaven

 

ZaG

 

E||-----------5---------------|------------------8--8--|--8----8--5---------8---10-|

B||-------------8-5-----------|---------------8--------|-------------5-10----------|

G||--7--------------7-5---7-5-|------------------------|---------------------------|

D||---------------------7-----|--7-5-------------------|---------------------------|

A||---------------------------|------8-----------------|---------------------------|

E||---------------------------|------------------------|---------------------------|

 

 

--8---------------------5-------|-------------------------------|-----5-----------------------------|

----10-8----8-10----------8-5-7-|-------------------------------|-------8-5-------------------------|

---------10----------7----------|--5---7-5------------5---5--5--|--0--------7-5---5-7-5-------------|

--------------------------------|----7-----7-5---5-7----7-------|---------------7-------7-5-7-5---5-|

--------------------------------|--------------7----------------|-------------------------------8---|

--------------------------------|-------------------------------|-----------------------------------|

 

 

----------------------------------------|---------------------15---15-13-------------|

-------6----------------------------13--|--15--15-13-15-13-13------------15-15-13----|

-----5---7-5---5--------12----12-14-----|-----------------------------------------14-|

--7----------7---12-14-----14-----------|--------------------------------------------|

----------------------------------------|--------------------------------------------|

----------------------------------------|--------------------------------------------|

 

 

----------------------------------------------------------|

--13--15--13----13--15--13----13--15--13----13--15--13----|

-------------14------------14------------14------------14-|

----------------------------------------------------------|

----------------------------------------------------------|

----------------------------------------------------------|

 

 

----------------------------------------------------------|---------------------------------15-------|

--13--15--13----13--15--13----13--15--13----13--15--13----|--13--15--13----13--15--13----13----------|

-------------14------------14------------14------------14-|-------------14------------14-------------|

----------------------------------------------------------|------------------------------------------|

----------------------------------------------------------|------------------------------------------|

----------------------------------------------------------|------------------------------------------|

 

 

----12-15-12-----------------------------15-|-------------------------|------------------------------|

-------15----15-13----13-15-13----13-15-----|--15--13-----------------|------------------------------|

-------------------14----------14-----------|---------14--------------|----14------14--14--12-14--12-|

--------------------------------------------|-------------------------|------------------------------|

--------------------------------------------|-------------------------|------------------------------|

--------------------------------------------|-------------------------|------------------------------|

 

 

--------------------|---------------------------|-----------------------|

--------------------|---------------------------|----5------------------|

--14----------------|----10--------10-9-7-5-7-5-|--7---7-5--------------|

--------------------|---------------------------|----------7------------|

--------------------|---------------------------|-----------------------|

--------------------|---------------------------|-----------------------|

 

 

-------20-17----20-17----20-17----20-17----20-17----20----|------|------|------|------|------|------|------|

----17-------17-------17-------17-------17-------17-------|------|------|------|------|------|------|------|

----------------------------------------------------------|------|------|------|------|------|------|------|

----------------------------------------------------------|------|------|------|------|------|------|------|

----------------------------------------------------------|------|------|------|------|------|------|------|

----------------------------------------------------------|------|------|------|------|------|------|------|

 

 

------|------|------|------|------|------|------|------||

------|------|------|------|------|------|------|------||

------|------|------|------|------|------|------|------||

------|------|------|------|------|------|------|------||

------|------|------|------|------|------|------|------||

------|------|------|------|------|------|------|------||

 

 

ZaG studio 2004

 

 

...

 
 
 
     
 
 
| | | | | | | | | |
 

.net     , ,

 
24.12.2011
06.03.2004
 
 
    Internet Map Rambler's Top100

. . . .

, , ZaG

zagstudio