-
 
Guitar Pro
 
 
     
 
 

, , ,



- Jimmy Page Robert PlantStairway to heaven

 

 ZaG

 

 

E||-----------5--7--------7--|--8--------8--2--------2--|--0-------------0--------|------------------------|

B||--------5--------5--------|-----5-----------3--------|-----1-----1-------1-----|--0--1--1---------------|

G||-----5--------------5-----|--------5-----------2-----|--------2-------------2--|--0--2--2------2--------|

D||--7-----------6-----------|--5-----------4-----------|--3----------------------|------------------------|

A||--------------------------|--------------------------|-------------------------|--2--0--0------0--8--7--|

E||--------------------------|--------------------------|-------------------------|------------------------|

 

 

--------------7--------7--|--8--------8--2--------2--|--0-------------0--------|-----------------------|

-----------5-----5--------|-----5-----------3--------|-----1-----1-------1-----|--0--1--1--------------|

--------5-----------5-----|--------5-----------2-----|--------2-------------2--|--0--2--2--------------|

-----7--------6-----------|--5-----------4-----------|--3----------------------|-----------------------|

--0-----------------------|--------------------------|-------------------------|--2--0--0--------0--2--|

--------------------------|--------------------------|-------------------------|-----------------------|

 

 

-----------0--2--------2--|--0--------0--------------|--------------3--------3--|--3-2-2--2--------------|

-----------------3--------|-----1--------0-----------|--1--------1-----0--------|------3--3--------------|

--------0-----------2-----|--------2--------2--------|-----0--------------0-----|------2--2--------------|

-----2--------0-----------|--3-----------------------|--------2-----------------|--0---0--0--------------|

--3-----------------------|--------------0-----0--2--|--3-----------------------|------------------0--2--|

--------------------------|--------------------------|--------------3-----------|------------------------|

 

 

--------------2--------2--|--0--------0--------------|-----------------------2--|--0--0--0------------|

-----------1-----3--------|-----1--------0-----------|-----------1--------3-----|--1--1--1------------|

--------0-----------2-----|--------2--------2--------|--------0--------2--------|--2--2--2------------|

-----2--------0-----------|--3-----------------------|-----2--------0-----------|--3--3--3------------|

--3-----------------------|--------------0-----0--2--|--3-----------------------|---------------------|

--------------------------|--------------------------|--------------------------|---------------------|

 

 

-----------5--7--------7--|--8--------8--2--------2--|--0-------------0--------|---------------------|

--------5--------5--------|-----5-----------3--------|-----1-----1-------1-----|--0--1--1------------|

-----5--------------5-----|--------5-----------2-----|--------2-------------2--|--0--2--2------------|

--7-----------6-----------|--5-----------4-----------|--3----------------------|---------------------|

--------------------------|--------------------------|-------------------------|--2--0--0------------|

--------------------------|--------------------------|-------------------------|---------------------|

 

 

-----------5--7--------7--|--8--------8--2--------2--|--0-------------0--------|-----------------------|

--------5--------5--------|-----5-----------3--------|-----1-----1-------1-----|--0--1--1--------------|

-----5--------------5-----|--------5-----------2-----|--------2-------------2--|--0--2--2--------------|

--7-----------6-----------|--5-----------4-----------|--3----------------------|-----------------------|

--------------------------|--------------------------|-------------------------|--2--0--0--------0--2--|

--------------------------|--------------------------|-------------------------|-----------------------|

 

 

--------------2--------2--|--0--------0----------------|--------------3--------3--|--3-2-2--2--------------|

-----------1-----3--------|-----1-------1--0-----------|--1--------1-----0--------|------3--3--------------|

--------0-----------2-----|--------2----------2-----0--|-----0--------------0-----|------2--2--------------|

-----2--------0-----------|--3-------------------------|--------2-----------------|--0---0--0--------------|

--3-----------------------|----------------0-----0--2--|--3-----------------------|------------------0--2--|

--------------------------|----------------------------|--------------3-----------|------------------------|

 

 

--------------2--------2--|--0--------0--------------|--------------2--------2--|--0--0--0------------|

-----------1-----3--------|-----1--------0-----------|--1--------1-----3--------|--1--1--1------------|

--------0-----------2-----|--------2--------2-----0--|-----0--------------2-----|--2--2--2------------|

-----2--------0-----------|--3-----------------------|--------2-----0-----------|--3--3--3------------|

--3-----------------------|--------------------0--2--|--3-----------------------|---------------------|

--------------------------|--------------------------|--------------------------|---------------------|

 

 

------||

------||

------||

------||

------||

------||

 

 

ZaG studio 2004

 

 

...

 
 
 
     
 
 
| | | | | | | | | |
 

.net     , ,

 
24.12.2011
06.03.2004
 
 
    Internet Map Rambler's Top100

. . . .

, , ZaG

zagstudio