-
 
Guitar Pro
 
 
     
 
 

, , ,



-

 

V.Novikov (Russia)

Classical Guitar

 

 

 

E||--------------|--------------|--------------|--------------|---------------|

B||-----1--1-----|-----1--1-----|-----1--1-----|-----1--1-----|---------------|

G||-----2--2-----|-----2--2-----|-----2--2-----|-----2--2-----|-----2h1-2-----|

D||-----2--2-----|-----2--2-----|-----2--2-----|-----2--2-----|--2---------2--|

A||--0-----------|--0-----------|--0-----------|--0-----------|--0------------|

E||-----------0--|-----------0--|-----------0--|-----------0--|---------------|

 

 

---------------|--------------|---------------|---------------|---------------|

-----1h0-1-----|-----5--6--5--|--5--3h1-3-----|---------------|---------------|

------------2--|--2--5--7--5--|--5---------1--|---------------|-----4h2-4--1--|

--2------------|--------------|------------2--|--2--6h4-6--2--|--2------------|

--0------------|--0-----------|---------------|---------------|---------------|

---------------|--------------|--0------------|--0------------|--0------------|

 

 

--------------|---------0-----|---------------|---------------|-----0--1--3--|

-----6--5--3--|--6---------1--|---------------|-----1h0-1-----|-----2--3--5--|

--1--7--5--4--|--7--9h7----2--|-----2h1-2-----|------------2--|--2-----------|

--------------|---------------|--2---------2--|--2------------|--------------|

--------------|--0------------|--0------------|--0------------|--0-----------|

--0-----------|---------------|---------------|---------------|--------------|

 

 

--3--1h0-1-----|--1---0----1--|--0-----------|----------------|---------------|

--5---------3--|--3-----3-----|-----1-----1--|--0h1-3--1h0----|---------------|

------------2--|--1-----------|-----2--------|------2------2--|--4h2-1h4-2----|

--0------------|--------------|--------------|------3------2--|---------------|

---------------|--2-----------|--3-----0-----|-------------3--|----------0----|

---------------|--------------|--------------|----------------|------0--------|

 

 

|--------5-----|--5--3-----3--|--3--2h3-5--3--|--3--1--1----|-------3-----|

|--------6-----|--6--5-----5--|--5------------|-----3--3----|-------5-----|

|*--2----------|--------------|---------------|-----2--2----|--0-------0--|

|*----------7--|--------------|---------------|--0-----0----|-------------|

|---0----------|--0-----0-----|--0------------|-------------|-------------|

|--------------|--------------|---------------|-------------|--3----------|

 

 

--3--1-----1--|--1--0h1h3--1--|--1--0--0----|--------1-----|--1--0--------|

--5--3-----3--|--3------------|-----1--1----|--------3-----|--3--1-----3--|

--------------|---------------|-----0--0----|--1-----------|-----------4--|

--------------|---------------|-------------|-----2-----2--|--------------|

--------------|---------------|--3-----3----|--------------|--------------|

--3-----3-----|--3------------|-------------|--0-----------|--0-----0-----|

 

 

--------0-----|--0-----------|--------------|--------------|--0--------------|

--------1-----|--1--3-----1--|--------1-----|--1--0--------|--0----------0-1-|

--2-----------|-----4-----2--|--------2-----|-----2-----2--|--1------1-2-----|

-----2-----2--|--------------|--3-----------|-----1--------|-----2h4---------|

--0-----------|--0-----0-----|-----0-----0--|--2-----2-----|-----------------|

--------------|--------------|--------------|--------------|--0--------------|

 

 

------------0-2-4--||--------------|--1--0----0--|--5------------0-|

--3-1-0-1-3--------||--0-----3-----|--3--1----3--|---------1---1---|

------------------*||-----2-----2--|----------1--|--5----2---2-----|

------------------*||-----0-----0--|-------------|-----2-----------|

-------------------||--------------|--2--3-------|--0--------------|

-------------------||--1-----------|----------0--|-----------------|

 

 

---------------1-|--5----5----|-----------||

---------3---3---|-------5----|-----------||

-------2---2-----|-------5----|--2--------||

-----3-----------|------------|-----------||

--0--------------|-------0----|--0--------||

-----------------|------------|-----------||

 

 

 

 

...

 
 
 
     
 
 
| | | | | | | | | |
 

.net     , ,

 
24.12.2011
06.03.2004
 
 
    Internet Map Rambler's Top100

. . . .

, , ZaG

zagstudio