-
 
Guitar Pro
 
 
     
 
 

, , ,



- - ?

 

E||------------|------------|--3----2----|-------2----|-------0----|

B||------------|-------0----|------------|--4---------|--0----0----|

G||------------|--0---------|------------|------------|--0----0----|

D||--2----4----|------------|------------|------------|------------|

A||------------|------------|------------|------------|------------|

E||------------|------------|------------|-------0----|-------3----|

 

 

------------|------------|------------|-------1----|--0---------|------------|

------------|------------|--0----1----|--3----0----|-------4----|--3----1----|

------------|------------|------------|------------|------------|------------|

------------|------------|------------|------------|------------|------------|

------------|-------2----|------------|------------|------------|-------0----|

--0----2----|--3---------|------------|-------0----|------------|------------|

 

 

------------|------------|------------|--0----0----|------------|------------|

------------|------------|--0----1----|------------|--1----1----|------------|

------------|--1----2----|------------|------------|------------|--2----2----|

--2----4----|------------|------------|------------|------------|------------|

------------|------------|------------|-------0----|------------|-------3----|

------------|------------|------------|------------|------------|------------|

 

 

------------|-------0----|------------|------------|------------|------------|

------------|--1---------|-------0----|------------|------------|--2----4----|

-------2----|------------|--0----0----|------------|------------|--3---------|

--4---------|------------|--2----2----|------------|------------|--2---------|

------------|-------2----|------------|------------|------------|------------|

------------|------------|-------3----|--0----2----|--3----2----|------------|

 

 

--0----2----|--3----0----|--3----2----|------------|------------|------------|

-------1----|------------|------------|--0---------|------------|------------|

-------2----|------------|------------|--2---------|------------|------------|

------------|------------|------------|--1---------|------------|------------|

-------0----|------------|-------2----|--2----3----|--2----0----|------------|

------------|------------|------------|------------|------------|--3----2----|

 

 

------------|------------|-------3----|--2---------|--2---------|--0---------|

------------|------------|--0---------|-------4----|-------1----|------------|

------------|-------0----|------------|------------|-------0----|------------|

-------2----|--4---------|------------|------------|------------|------------|

------------|------------|------------|------------|--3---------|-------3----|

--0---------|------------|------------|------------|------------|------------|

 

 

------------|------------|------------|--1----0----|------------|------------|

------------|-------3----|--2----3----|--0---------|--4----3----|--1---------|

------------|------------|------------|--1---------|------------|--2---------|

------------|------------|------------|------------|------------|--2---------|

--2----3----|--2---------|------------|------------|------------|--0---------|

------------|------------|------------|------------|------------|-------0----|

 

 

------------|------------|------------|-------0----|--2----0----|--2----0----|

------------|------------|------------|-------1----|--1----1----|--1----1----|

------------|------------|------------|-------2----|--2----2----|--2----2----|

------------|------------|------------|------------|------------|------------|

------------|--2----0----|--6----7----|--0---------|------------|------------|

--2----4----|------------|------------|------------|------------|------------|

 

 

--2----0----|--2---------|--0---------|------------|-------0----|--2----0----|

--1----1----|-------0----|------------|------------|------------|------------|

--2----2----|-------0----|------------|------------|--3---------|------------|

------------|------------|------------|------------|--2---------|------------|

------------|--2---------|-------2----|--1----2----|--3---------|------------|

------------|------------|------------|------------|------------|------------|

 

 

--2----0----|-------0----|--2---------|-------3----|--2---------|--0---------|

------------|--4---------|--0---------|--0---------|-------4----|-------0----|

------------|------------|--2---------|------------|------------|------------|

------------|------------|--1---------|------------|------------|------------|

--4---------|------------|-------2----|------------|------------|------------|

------------|------------|------------|------------|------------|-------3----|

 

 

------------|--0----0----|-------2----|------------|------------|------------|

------------|-------1----|--4---------|-------1----|-------0----|------------|

--0---------|------------|------------|--2---------|--0---------|------------|

--2---------|------------|------------|------------|--2---------|------------|

------------|-------0----|------------|------------|------------|------------|

-------2----|------------|------------|-------0----|------------|--0----2----|

 

 

------------|------------|-------0----|------------|-------1----|-------1----|

------------|--0----1----|--3---------|------------|--0---------|--0----0----|

------------|------------|------------|--1----1----|------------|--1----1----|

------------|------------|------------|--2----2----|------------|------------|

-------2----|------------|------------|------------|------------|------------|

--3---------|------------|-------0----|------------|-------0----|------------|

 

 

--0---------|------------|------------|------------|-------0----|--2----0----|

-------4----|--3----1----|------------|------------|-------1----|--1----1----|

------------|------------|--2----2----|--2---------|-------2----|--2----2----|

------------|------------|--2----2----|--2---------|------------|------------|

------------|-------0----|------------|------------|--0---------|------------|

------------|------------|------------|-------0----|------------|------------|

 

 

--2---------|-------0----|--0---------|--2----5----|--5---------|--3---------|

-------1----|--1---------|-------4----|------------|-------5----|-------5----|

-------2----|--2---------|------------|------------|-------5----|-------5----|

------------|------------|------------|------------|------------|------------|

--0---------|------------|--2---------|------------|--3---------|------------|

------------|------------|------------|------------|------------|------------|

 

 

------------|--2----5----|--2----0----|------------|--0----0----|-------3----|

------------|------------|------------|-------0----|------------|--4----4----|

------------|------------|------------|-------0----|------------|-------2----|

------------|------------|------------|--2---------|------------|------------|

--2----0----|------------|-------2----|------------|-------2----|-------2----|

------------|------------|------------|------------|------------|------------|

 

 

--2----0----|------------|------------|------------|------------|-------||

------------|--0---------|------------|------------|------------|-------||

------------|--0---------|------------|------------|------------|-------||

------------|------------|------------|------------|------------|-------||

------------|-------3----|--2----0----|------------|-------2----|--7----||

-------0----|------------|------------|--3----2----|--0---------|-------||

 

 

 

 

...

 
 
 
     
 
 
| | | | | | | | | |
 

.net     , ,

 
24.12.2011
06.03.2004
 
 
    Internet Map Rambler's Top100

. . . .

, , ZaG

zagstudio