-
 
Guitar Pro
 
 
     
 
 

, , ,



  - - " "

 

.

 

 

E||-----------------|-------0---------|-----------------|-----------------|

B||-----------------|--0--------------|-------1---------|------------3----|

G||------------0----|-----------------|--2---------2----|-----------------|

D||--2----4---------|------------2----|-----------------|--2----0---------|

A||-----------------|-------0---------|-----------------|-----------------|

E||-----------------|-----------------|-----------------|-----------------|

 

 

--0/-------------|-----------------|-----------------|-----------------|

-------3----0----|-----------------|------------1----|--1----1----0----|

-----------------|-------0---------|--0--------------|-------2---------|

-----------------|--0---------2----|-----------------|-------2---------|

-----------------|-----------------|-------0---------|-----------------|

------------3----|-----------------|-----------------|-----------------|

 

 

-----------------|-----------------|-----------------|-----------------|

------------0----|--0----0---------|-----------------|-----------------|

--2--------------|-------0----2----|--0---------2----|--2----2---------|

-----------------|-------2---------|-----------------|------------1----|

-----------------|-----------------|-------2---------|-----------------|

-------0---------|-----------------|-----------------|-----------------|

 

 

-----------------|-------0----2----|--3----2----0----|--0--------------|

------------0----|-----------------|-----------------|--0----3----0----|

-------0---------|-----------------|-----------------|--0--------------|

--2--------------|-----------------|-----------------|-----------------|

-----------------|--2--------------|-----------------|-----------------|

--0--------------|-----------------|--0--------------|-----------------|

 

 

-----------------|------------0----|--2----0---------|-------0----2----|

--1----0---------|-------4---------|------------4----|-----------------|

------------2----|-----------------|-----------------|-----------------|

-----------------|-----------------|-----------------|--4--------------|

--0--------------|--3--------------|--2--------------|-----------------|

-----------------|-----------------|-----------------|-----------------|

 

 

--3----2----0----|-------0----2----|--3----2----0----|--0--------------|

-----------------|-----------------|-----------------|--0----3----0----|

-----------------|-----------------|-----------------|--0--------------|

-----------------|-----------------|-----------------|-----------------|

-----------------|--2--------------|-----------------|-----------------|

--0--------------|-----------------|--0--------------|-----------------|

 

 

-----------------|------------0----|--2----0---------|-------0----2----|

--1----0---------|-------4---------|------------4----|-----------------|

------------2----|-----------------|-----------------|-----------------|

-----------------|-----------------|-----------------|--4--------------|

--0--------------|--3--------------|--2--------------|-----------------|

-----------------|-----------------|-----------------|-----------------|

 

 

--3----2----0----|-------4----5----|--7----5----4----|--4----5----7----|

-----------------|-----------------|-----------------|--3--------------|

-----------------|-----------------|-----------------|--4--------------|

-----------------|--2--------------|-----------------|-----------------|

-----------------|-----------------|-----------------|-----------------|

--0--------------|-----------------|--0--------------|-----------------|

 

 

--8----7----5----|-------2----3----|--5----3----2----|--2----3----5----|

-----------------|--5--------------|-----------------|--1--------------|

-----------------|--5--------------|-----------------|--2--------------|

-----------------|-----------------|--0--------------|-----------------|

--0--------------|-----------------|-----------------|-----------------|

-----------------|-----------------|-----------------|-----------------|

 

 

--7---------6----|--7----0----2----|--3----2----0----|--0--------------|

-------0---------|--0--------------|-----------------|--0----3----0----|

-------0---------|--0--------------|-----------------|--0--------------|

-----------------|-----------------|-----------------|-----------------|

-----------------|-----------------|-----------------|-----------------|

--3--------------|-----------------|--0--------------|-----------------|

 

 

-----------------|------------0----|--2----0---------|-------0----2----|

--1----0---------|-------4---------|------------4----|--4--------------|

------------2----|-----------------|-----------------|-----------------|

-----------------|-----------------|-----------------|--4--------------|

--0--------------|--3--------------|--2--------------|-----------------|

-----------------|-----------------|-----------------|-----------------|

 

 

--3----2----0----|-----------------||--------0----2----|--3----7----12----|

-----------------|------------0----||------------------|--0---------------|

-----------------|-------0---------||*-----------------|--0---------------|

-----------------|-----------------||*--2--------------|------------------|

-----------------|--2--------------||------------------|------------0-----|

--0--------------|-----------------||------------------|------------------|

 

 

--------------------|-------------------|--10----12----10----|--5----7---------|

--------10----------|--------10---------|--------------------|-----------------|

--11----------------|--11---------------|--------------11----|------------0----|

--------------10----|--------------0----|--------------------|-----------------|

--------------------|-------------------|--------------------|-----------------|

--------------------|-------------------|--------------------|-------3---------|

 

 

-------10---------|------------8----|--8----8----7----|--5---------7----|

--0---------------|--9--------------|-------5---------|-----------------|

-------------9----|-----------------|-------5---------|-----------------|

------------------|-----------------|-----------------|-----------------|

------------------|-------0---------|-----------------|-----------------|

-------0----------|-----------------|-----------------|-------0---------|

 

 

--7----7----5----|--3---------5----|--5----5---------|--0--------------|

-------0---------|-----------------|-------4----4----|------------0----|

-------0---------|-----------------|-------4---------|-------0---------|

-----------------|-----------------|-------4---------|-----------------|

-----------------|-------2---------|-----------------|-----------------|

-----------------|-----------------|-----------------|--0--------------|

 

 

------------------||--0--------------|-----------||

------------0-----||------------0----|-----------||

-------0---------*||-------0---------|-----------||

-----------------*||-----------------|--2--------||

--2---------------||-----------------|-----------||

------------------||--0--------------|-----------||

 

ZaG studio 2004

 

 

...

 
 
 
     
 
 
| | | | | | | | | |
 

.net     , ,

 
24.12.2011
06.03.2004
 
 
    Internet Map Rambler's Top100

. . . .

, , ZaG

zagstudio