-
 
Guitar Pro
 
 
     
 
 

, , ,



-

 

 

ZaG

 

E||-------7----7----7----|--7----3---------5----|--5----5----5----2----|

B||--0----0--------------|------------0----4----|----------------------|

G||-------0--------------|------------0----5----|-----------------2----|

D||----------------------|-----------------4----|-----------------0----|

A||----------------------|-------2--------------|----------------------|

E||-------0--------------|----------------------|----------------------|

 

 

------------3---------|----------------------|-------0----12----12----|

--1----0--------------|--0---------0---------|--0---------------------|

-------0--------------|--0---------0---------|--0---------------------|

----------------------|----------------------|------------------------|

-----------------2----|-----------------2----|------------------------|

-------0--------------|-------0--------------|------------8-----------|

 

 

--12----12----8----0----|--10----10----10----10----|--7----0----8---------|

------------------------|--------------------------|-----------------5----|

------------------------|--------------------------|-----------------5----|

------------------------|--------------------------|----------------------|

------------------------|--------------------------|------------0---------|

------------------------|--0-----------------------|----------------------|

 

 

----------------------|-----------------8----|--7----8----7----------|

-------5----5---------|--5---------5---------|--7--------------10----|

-------5----5---------|--5---------5---------|--8--------------------|

----------------------|----------------------|------------4----------|

--0--------------0----|----------------------|-----------------------|

-------0--------------|-------0--------------|--7--------------------|

 

 

----------------------|--8----7----8----7----|--3----0--------------|

--7-------------------|-------0---------0----|----------------------|

-------8---------8----|-------0---------0----|------------0---------|

-------7---------7----|-----------------0----|----------------------|

------------9---------|-------7--------------|-------3---------2----|

--7-------------------|----------------------|----------------------|

 

 

-------7----5----7----|--5---------3----2----|--3----2---------3----|

------------5---------|-------5---------0----|------------0---------|

------------5---------|-------5---------2----|----------------------|

----------------------|----------------------|----------------------|

--0---------0---------|-----------------2----|----------------------|

----------------------|----------------------|-----------------0----|

 

 

----------------------|-----------------7----|--5----7----5----3----|

--0---------0---------|--0---------0---------|--4-------------------|

--0---------0---------|--0---------0---------|--4-------------------|

----------------------|----------------------|--4-------------------|

-------2--------------|-------2--------------|----------------------|

-----------------0----|----------------------|----------------------|

 

 

--2-------------------|--8----7----8----7----|--3----0--------------|

-------0---------0----|-------0---------0----|----------------------|

-------2---------2----|-------0---------0----|------------0---------|

----------------------|-----------------0----|----------------------|

--2-------------------|-------7--------------|-------3---------2----|

------------2---------|----------------------|----------------------|

 

 

-------7----5----7----|--5---------3----2----|-------0--------------|

------------5---------|-------5--------------|--0---------0---------|

--0---------5---------|-------5--------------|------------0---------|

----------------------|----------------------|----------------------|

------------0---------|----------------------|-----------------2----|

----------------------|----------------------|-------0--------------|

 

 

------------0----2----|--3----5----3----2----|--0---------7---------|

--0-------------------|----------------------|-----------------5----|

--0-------------------|----------------------|-------5---------5----|

----------------------|----------------------|----------------------|

----------------------|----------------------|-------0--------------|

-------0--------------|----------------------|----------------------|

 

 

--5--------------0----|--2----3----5----3----|--2----0---------5----|

-------5--------------|----------------------|------------0---------|

-------5--------------|----------------------|----------------------|

----------------------|----------------------|----------------------|

------------0---------|----------------------|----------------------|

--0-------------------|----------------------|------------0---------|

 

 

-------3--------------|--0----2----3----5----|--3----2----0---------|

--0---------0---------|----------------------|----------------------|

--0---------0---------|----------------------|-----------------2----|

----------------------|----------------------|----------------------|

-------2--------------|----------------------|-----------------0----|

-----------------0----|----------------------|----------------------|

 

 

--3---------2---------|-------3---------2----|------------2---------|

-------1---------1----|------------0---------|--0--------------0----|

-------2---------2----|--2---------2---------|--2----0---------0----|

----------------------|----------------------|----------------------|

----------------------|--2-------------------|----------------------|

------------0---------|-----------------2----|-------0--------------|

 

 

--0---------0--------|----------||

-------0----0--------|----------||

-------0----0--------|----------||

---------------------|----------||

--2------------------|----------||

------------0--------|----------||

 

 

 

 

...

 
 
 
     
 
 
| | | | | | | | | |
 

.net     , ,

 
24.12.2011
06.03.2004
 
 
    Internet Map Rambler's Top100

. . . .

, , ZaG

zagstudio