-
 
Guitar Pro
 
 
     
 
 

, , ,



-

 

 

E||-------0--------------|-----------------5----|--5-------------------|

B||-------1---------0----|--1-------------------|------------6---------|

G||-------2----2---------|-------2----5---------|-------5---------5----|

D||-------2--------------|--2-------------------|--0-------------------|

A||--0-------------------|----------------------|----------------------|

E||----------------------|----------------------|----------------------|

 

 

--1-------------------|----------------------|-----------------3----|

------------1---------|----------------------|--0---------0---------|

-------2---------2----|------------0----2----|-------0--------------|

----------------------|-------3--------------|--0-------------------|

--0-------------------|-------2--------------|----------------------|

----------------------|--3-------------------|----------------------|

 

 

----------------------|----------------------|--0-------------------|

-------1--------------|--2-------------------|--1---------0----1----|

--3---------3---------|--3-------------------|--2----2--------------|

----------------------|----------------------|--2--------------3----|

----------------------|----------------------|----------------------|

-----------------3----|-------0----3----1----|----------------------|

 

 

------------0----0----|----------------------|----------------------|

-------1--------------|--1----3--------------|-----------------0----|

--2-------------------|--2---------4---------|-----------------1----|

-----------------0----|------------3---------|-----------------0----|

----------------------|-----------------2----|--3----2--------------|

----------------------|----------------------|------------0----1----|

 

 

--4----1----0---------|----------------------|----------------------|

------------0----3----|--3----0----1---------|----------------------|

------------1---------|----------------------|--2-------------------|

----------------------|-----------------2----|-------2---------2----|

----------------------|------------0---------|----------------------|

------------0---------|----------------------|------------0---------|

 

 

-----------------0----|----------------------|-------8----8---------|

-----------------1----|-------0----1---------|----------------------|

--2--------------2----|--2--------------2----|--5--------------7----|

-------2---------2----|------------2---------|------------0---------|

------------0---------|----------------------|----------------------|

----------------------|----------------------|----------------------|

 

 

------------5---------|----------------------|----------------------|

--6-------------------|--6-------------------|------------0---------|

-------7---------5----|-------5--------------|--0----2---------0----|

----------------------|-----------------3----|------------0---------|

------------0---------|-----------------2----|----------------------|

----------------------|------------3---------|----------------------|

 

 

-------3----3---------|----------------------|----------------------|

--0-------------------|--1--------------2----|-----------------1----|

-----------------3----|-------3---------3----|-----------------2----|

----------------------|----------------------|-----------------2----|

----------------------|----------------------|----------------------|

------------0---------|------------3---------|--0----3----1---------|

 

 

----------------------|-------0----1---------|----------------------|

-------0----1---------|--1--------------1----|--3-------------------|

--2--------------2----|-----------------2----|-------4--------------|

------------3---------|------------0---------|-------3--------------|

----------------------|----------------------|------------2----3----|

----------------------|----------------------|----------------------|

 

 

----------------------|--4----1----0---------|----------------------|

-----------------0----|------------0----3----|--3----0----1---------|

-----------------1----|------------1---------|----------------------|

-----------------0----|----------------------|-----------------2----|

--2----0--------------|----------------------|------------0---------|

------------1---------|------------0---------|----------------------|

 

 

----------------------||--------0----0---------|----------------------|

----------------------||---1-------------------|--1----0--------------|

--2--------------2----||*-----------------2----|------------2---------|

-------2--------------||*-----------------2----|-----------------2----|

----------------------||-------------0---------|------------3---------|

------------0---------||-----------------------|----------------------|

 

 

-------8----8---------|----------------------|-------5----7----8----|

----------------------|--6--------------6----|--8---------0---------|

-----------------7----|-------7---------7----|------------0---------|

------------0---------|----------------------|----------------------|

--0-------------------|------------0---------|----------------------|

----------------------|----------------------|----------------------|

 

 

--10----8----7---------|-------5----3---------|----------------------|

-----------------------|--0-------------------|----------------------|

------------------0----|----------------------|--3--------------3----|

-------------0---------|-----------------2----|-------2--------------|

-----------------------|------------3---------|----------------------|

-----------------------|----------------------|------------3---------|

 

 

-------0----5----7----|--8----7----5---------|-------0----1---------|

--1---------5---------|----------------------|----------------------|

------------5---------|----------------------|--5--------------2----|

----------------------|-----------------5----|------------0---------|

------------0---------|------------7---------|----------------------|

----------------------|----------------------|----------------------|

 

 

----------------------|------------4----1----|--0-------------------|

--3-------------------|--3-------------------|-------3----1---------|

-------2---------2----|-------2--------------|----------------------|

----------------------|----------------------|-----------------0----|

------------2---------|----------------------|----------------------|

----------------------|------------0---------|------------0---------|

 

 

-------0----4----4-----||--4----5----7---------|-------4----5----||

-----------------------||----------------------|--5---------5----||

--1---------4----4----*||--4----5----7---------|--7----4----5----||

----------------------*||-----------------6----|-----------------||

-----------------------||----------------------|------------0----||

------------0----------||------------0---------|-----------------||

 

 

 

 

...

 
 
 
     
 
 
| | | | | | | | | |
 

.net     , ,

 
24.12.2011
06.03.2004
 
 
    Internet Map Rambler's Top100

. . . .

, , ZaG

zagstudio